Partagez
Voir le sujet précédentAller en basVoir le sujet suivant
Mr Paramount
Posteur Expert
Posteur Expert
Messages : 790

Infos suplémentaires
Instrument Favori:
Album préféré: Dancetaria
Connaît Indochine depuis: 2003

16 - Le dernier Jour

le 9/3/2009, 20:57
je poste ce que je viens de trouver :

guitare juste après l'intro

D -4444444333388888888

Ce qui donnerais comme accord pour le couplet F# (Fm bof) A#
et pour le refrain je dirais un truc du genre F# A# G# A#...
A vérifier...
avatar
Sam
Administrateur
Administrateur
Messages : 2948

Infos suplémentaires
Instrument Favori: Autre
Album préféré: Nuits intimes
Connaît Indochine depuis: 2002
http://goossy.cowblog.fr

Re: 16 - Le dernier Jour

le 9/3/2009, 21:16
BPM: 134

Je trouve:
Couplets: F#-------- C# D#m----------- C#

Les C# sont donc des accords "transitoires" (mais pas du tout sûr, ça sonne juste pas trop mal)

Transition pré refrain: G#

Refrain (modulé): Cm G# D# A#


Dernière édition par Sam le 30/3/2009, 21:08, édité 1 fois

_________________
avatar
Ulysse
Adorateur/rice Habitué
Adorateur/rice Habitué
Messages : 1792

Infos suplémentaires
Instrument Favori:
Album préféré: Alice & June
Connaît Indochine depuis: 3 ans
http://myspace.com/morphine59

Re: 16 - Le dernier Jour

le 9/3/2009, 23:48
Capo 1 (décidément !!)


Couplets: F (C) Dm (C)

Transition pré refrain: G

Refrain (modulé): Bm G D A
Mr Paramount
Posteur Expert
Posteur Expert
Messages : 790

Infos suplémentaires
Instrument Favori:
Album préféré: Dancetaria
Connaît Indochine depuis: 2003

Re: 16 - Le dernier Jour

le 10/3/2009, 15:35
je suis pas trop d'acoord avec le G# je dirais que ça alterne entre C# et G#. le reste c ok, et c'est tjs compatible avec le riff que j'ai proposé
avatar
Sam
Administrateur
Administrateur
Messages : 2948

Infos suplémentaires
Instrument Favori: Autre
Album préféré: Nuits intimes
Connaît Indochine depuis: 2002
http://goossy.cowblog.fr

Re: 16 - Le dernier Jour

le 10/3/2009, 19:06
Le G# ? A quel endroit, celui du refrain ?

_________________
Mr Paramount
Posteur Expert
Posteur Expert
Messages : 790

Infos suplémentaires
Instrument Favori:
Album préféré: Dancetaria
Connaît Indochine depuis: 2003

Re: 16 - Le dernier Jour

le 10/3/2009, 19:10
non non, pardon j'ai pas fait gaffe que c'était pas très clair. le G# que t'as apellé pré refrain...
avatar
smalltown boy
Novice Lvl. 2
Novice Lvl. 2
Messages : 47

Infos suplémentaires
Instrument Favori:
Album préféré: Alice & June
Connaît Indochine depuis: 2005

Re: 16 - Le dernier Jour

le 11/3/2009, 10:32
Mr Paramount a écrit:je suis pas trop d'acoord avec le G# je dirais que ça alterne entre C# et G#. le reste c ok, et c'est tjs compatible avec le riff que j'ai proposé

je suis pas de ton avis pour moi ca sonne mieux avec un G# apres etude du sujet :study:
avatar
Sam
Administrateur
Administrateur
Messages : 2948

Infos suplémentaires
Instrument Favori: Autre
Album préféré: Nuits intimes
Connaît Indochine depuis: 2002
http://goossy.cowblog.fr

Re: 16 - Le dernier Jour

le 11/3/2009, 19:09
smalltown boy a écrit:je suis pas de ton avis pour moi ca sonne mieux avec un G# apres etude du sujet :study:
Idem, je maintiens le G# après vérif Smile

_________________
Mr Paramount
Posteur Expert
Posteur Expert
Messages : 790

Infos suplémentaires
Instrument Favori:
Album préféré: Dancetaria
Connaît Indochine depuis: 2003

Re: 16 - Le dernier Jour

le 11/3/2009, 19:26
oui c'est bien G#, on parlais pas de même moment en fait... j'ai bientôt un GP sur celle là...
avatar
clem's
Adorateur/rice Débutant
Adorateur/rice Débutant
Messages : 1001

Infos suplémentaires
Instrument Favori: Guitare
Album préféré: Dancetaria
Connaît Indochine depuis: 2002
http://www.clemsmusic.com

Re: 16 - Le dernier Jour

le 13/3/2009, 21:43
Ulysse a écrit:Refrain (modulé): Bm G D A
Ah ça c'est marrant, c'est exactement les accords du refrain de mon avant dernière compo Laughing
Ca fait bizarre ^^ lol
avatar
Ulysse
Adorateur/rice Habitué
Adorateur/rice Habitué
Messages : 1792

Infos suplémentaires
Instrument Favori:
Album préféré: Alice & June
Connaît Indochine depuis: 3 ans
http://myspace.com/morphine59

Re: 16 - Le dernier Jour

le 16/3/2009, 08:34
Riffs


Debut :


---------------------------------------------------------------------------
--7-7-7-7-7-7-7-7-7-7-7-6-6-6-6-11-11-11-11-11-11-11-11-11-11
---------------------------------------------------------------------------
---------------------------------------------------------------------------
---------------------------------------------------------------------------

Refrain :

----------------------------------------------------------------------
---------8---9-------------------------------------------------------
----5------------------8-------7-------------------------------------
----------------------------------------------------------------------
----------------------------------------------------------------------
----------------------------------------------------------------------
Mr Paramount
Posteur Expert
Posteur Expert
Messages : 790

Infos suplémentaires
Instrument Favori:
Album préféré: Dancetaria
Connaît Indochine depuis: 2003

Re: 16 - Le dernier Jour

le 26/3/2009, 19:36
http://www.ultimate-guitar.com/tabs/i/indochine/le_dernier_jour_guitar_pro.htm

voilà ma tab
avatar
Sam
Administrateur
Administrateur
Messages : 2948

Infos suplémentaires
Instrument Favori: Autre
Album préféré: Nuits intimes
Connaît Indochine depuis: 2002
http://goossy.cowblog.fr

Re: 16 - Le dernier Jour

le 26/3/2009, 19:43
Une conversion en .mid peut être ? Smile

_________________
Mr Paramount
Posteur Expert
Posteur Expert
Messages : 790

Infos suplémentaires
Instrument Favori:
Album préféré: Dancetaria
Connaît Indochine depuis: 2003

Re: 16 - Le dernier Jour

le 26/3/2009, 20:27
ce week end si j'y pense Wink
avatar
Sam
Administrateur
Administrateur
Messages : 2948

Infos suplémentaires
Instrument Favori: Autre
Album préféré: Nuits intimes
Connaît Indochine depuis: 2002
http://goossy.cowblog.fr

Re: 16 - Le dernier Jour

le 28/4/2009, 16:56
Pour les battements de guitare au refrain, j'ai trouvé:

b b h b b h b h par mesure / accord

(b = bas, h = haut)

C'est assez dynamique comme battement, mais je n'sais pas trop pour les couplets..

Quels battements vous faites pour les refrains / couplets ?

_________________
avatar
MeyKo
Novice Lvl. 1
Novice Lvl. 1
Messages : 1

Re: 16 - Le dernier Jour

le 24/9/2010, 16:23
Bonjour a tous!

Voila,j'aurais voulu savoir si c'etait possible de trouver la partition mais pour PIANO. :3
(vu que je la trouve nul par, je viens ici en dernier espoir.....)


Au cas ou, si quelqu'un la, merci de me repondre.... ><"
avatar
indotab
Posteur Acharné
Posteur Acharné
Messages : 398

Infos suplémentaires
Instrument Favori:
Album préféré: Paradize
Connaît Indochine depuis: L'aventurier
https://www.facebook.com/https://www.facebook.com/pages/Ph%C3%A9

Re: 16 - Le dernier Jour

le 4/1/2011, 03:34
Ulysse a écrit:
Debut :


---------------------------------------------------------------------------
--7-7-7-7-7-7-7-7-7-7-7-6-6-6-6-11-11-11-11-11-11-11-11-11-11
---------------------------------------------------------------------------
---------------------------------------------------------------------------
---------------------------------------------------------------------------
D'accord avec toi. En utilisant un delay à la croche pointé au tempo de 134 et 50% feedback ça donne ça :



Ulysse a écrit:
Refrain :

----------------------------------------------------------------------
---------8---9-------------------------------------------------------
----5------------------8-------7-------------------------------------
----------------------------------------------------------------------
----------------------------------------------------------------------
----------------------------------------------------------------------

Par contre je le joue plutot comme ça en conservant le delay

-------------------------------------------------------------------------------------
--------------8-8-8-8-9-9-9-9-9-6-6-6-6-----------------------------------------
----5-5-5-5--------------------------------8-8-8-8-8-8-8-7-7-7-7-7-7-7-7------
-------------------------------------------------------------------------------------
-------------------------------------------------------------------------------------
-------------------------------------------------------------------------------------
Le premier riff s'enchaine à la suite



Il y a un autre petit riff un peu loin dans le mix au niveau de "I get away..."


----18-18-18-18-18-18-18-18-18-18-18-18-17-17-17-17-14-14-14-14-14-14-14-14-14-14-14-14-14-14-14-14----
---------------------------------------------------------------------------------------------------------------------------------
---------------------------------------------------------------------------------------------------------------------------------
---------------------------------------------------------------------------------------------------------------------------------
---------------------------------------------------------------------------------------------------------------------------------
---------------------------------------------------------------------------------------------------------------------------------


Je pense que le réglage du Delay est à peaufiner...
avatar
ced777
Posteur Acharné
Posteur Acharné
Messages : 420

Infos suplémentaires
Instrument Favori: Guitare
Album préféré: Dancetaria
Connaît Indochine depuis: 1998 environ ...
http://ced.777.perso.neuf.fr/

Re: 16 - Le dernier Jour

le 4/1/2011, 12:59
c'est vrai que le delay grossit un peu le son et lui donne la bonne ampleur ici
avatar
indotab
Posteur Acharné
Posteur Acharné
Messages : 398

Infos suplémentaires
Instrument Favori:
Album préféré: Paradize
Connaît Indochine depuis: L'aventurier
https://www.facebook.com/https://www.facebook.com/pages/Ph%C3%A9

Re: 16 - Le dernier Jour

le 4/1/2011, 14:30
oui c'est clair !
Mais je me demande s'il ne doit pas être plus long. C'est pas évident de dissequer le delay sur cette chanson.
avatar
Krakatoa
Posteur Acharné
Posteur Acharné
Messages : 302

Infos suplémentaires
Instrument Favori:
Album préféré: Hanoï
Connaît Indochine depuis: assez longtemps

Re: 16 - Le dernier Jour

le 4/1/2011, 15:00
Perso je trouve le delay plutot bien ajusté, je pense que c'est une question de réverb peut etre qu'il faudrait un peu plus de profondeur... Smile
avatar
Thomas
Modérateur LittlePonette
Modérateur LittlePonette
Messages : 2771

Infos suplémentaires
Instrument Favori: Guitare
Album préféré: 7000 danses
Connaît Indochine depuis: 2005 - Savoure le rouge

Re: 16 - Le dernier Jour

le 4/1/2011, 17:20
de toute façon, une chanson, c'est fait pour être réinterprété par chaque personne qui la joue ;-) inventez votre propre delay =p
avatar
indotab
Posteur Acharné
Posteur Acharné
Messages : 398

Infos suplémentaires
Instrument Favori:
Album préféré: Paradize
Connaît Indochine depuis: L'aventurier
https://www.facebook.com/https://www.facebook.com/pages/Ph%C3%A9

Re: 16 - Le dernier Jour

le 4/1/2011, 21:38
Thomas a écrit:de toute façon, une chanson, c'est fait pour être réinterprété par chaque personne qui la joue ;-) inventez votre propre delay =p
Tu as raison, c'est vrai. Mais c'est plus fort que moi j'aime bien chercher à reproduire le son des morceaux que j'aime...
avatar
Thomas
Modérateur LittlePonette
Modérateur LittlePonette
Messages : 2771

Infos suplémentaires
Instrument Favori: Guitare
Album préféré: 7000 danses
Connaît Indochine depuis: 2005 - Savoure le rouge

Re: 16 - Le dernier Jour

le 5/1/2011, 02:06
lol le truc c'est que tu pourras jamais avoir exactement le même son, vu que de toute façon t'as pas sa les paul et son ac30 et ses pédales et blablabla =p

mais je comprends quand même ton point de vue =) c'est vrai que ça fait plaisir de réaliser qu'on peut se rapprocher des sons de guitaristes qu'on aime!
avatar
indotab
Posteur Acharné
Posteur Acharné
Messages : 398

Infos suplémentaires
Instrument Favori:
Album préféré: Paradize
Connaît Indochine depuis: L'aventurier
https://www.facebook.com/https://www.facebook.com/pages/Ph%C3%A9

Re: 16 - Le dernier Jour

le 5/1/2011, 08:59
Oui voila, c'est surtout s'en approcher.
Surtout quand il s'agit de Delay ou autre spatialisation du son.
avatar
Thomas
Modérateur LittlePonette
Modérateur LittlePonette
Messages : 2771

Infos suplémentaires
Instrument Favori: Guitare
Album préféré: 7000 danses
Connaît Indochine depuis: 2005 - Savoure le rouge

Re: 16 - Le dernier Jour

le 5/1/2011, 16:10
le truc, c'est qu'il y a beaucoup d'autres trucs qui rentrent en ligne de compte, si ça se trouve il a un compresseur, ce qui peut affecter énormément le delay!
Contenu sponsorisé

Re: 16 - Le dernier Jour

Voir le sujet précédentRevenir en hautVoir le sujet suivant
Permission de ce forum:
Vous ne pouvez pas répondre aux sujets dans ce forum