Partagez
Voir le sujet précédentAller en basVoir le sujet suivant
Mr Paramount
Posteur Expert
Posteur Expert
Messages : 790

Infos suplémentaires
Instrument Favori:
Album préféré: Dancetaria
Connaît Indochine depuis: 2003

Sur Les Toits Du Monde

le 22/5/2008, 20:22
Code:
intro Em D C Em D C + Riff :

e--------------|------------|----------|--3-|
B-0--0--0------|------------|-0--0--0--|----|
G--------2-0-0-|------------|--0--0--0-|----|
D-----------2--|----2--2--2-|----------|----|

    G        D        C
nous resterons dans nos chambres
    Em            D    C 
cloîtrés par tous ceux qui mentent
G            D          C
exclus je n'imaginerais rien
    Em        D  C           
d'un futur qui n'existerait plus
G            D      C
je ne verrai que du noir
    Em        D    C
mais j'irai si loin devant moi
        G      D      C
que l'on sera saisi d'effroi
  Em              D    C       
et qu'au milieu de rien qui croire
Em D C + riff...

e-3-0-3-0-3--3
B-3---3---3--3
G-4---4---4--4

Em7(022030) G

G                  Em7                G 
Je voudrais croire , je voudrais voir
                Em7                  G
je voudrais rire, je voudrais mourir
            Em7              G
j'observerai eh, je regarderai
                            G
derrière les portes et sur les toits
                    Em7
il y aura toi et moi
                G                  Em7
nous serons fiers de nos idées claires
                        G                              Em7
et nous danserons sur les toits, les toits du monde roi
                  A²(-02200)                C
nous voudrons vivre, et nous voudrons survivre
                Em7                            G
tu voudras crier ! non... et je voudrai t'aimer    say

pont :
 Em7 G Em7 G Em7... +riff

e-----------||------------|-----------------||----3-|
B---0-------||.-----------|--------0-------.||------|
G-----2-0-2-||.---0-0---0-|-0----0---2-0-2-.||--0---|
D-----------||--2-----2---|---2-------------||------|


 
G                  Em7                G
je voudrais croire, je voudrais te voir
                  Em7                G
je voudrais te dire, tu voudras mentir
                    G
en équilibre toi et moi
                    Em7 
conservons notre sang froid
                        G 
et nous danserons sur les toits
                      Em7
les toits d'un monde roi
                A²                  C
nous serons fiers de nos idées claires
              Em7                        G
tu voudras crier non et je voudrai t'aimer


*pont, couplet instru puis reprise de la derniere partie à "nous serons fiers..."*
avatar
arno173
Novice Lvl. 2
Novice Lvl. 2
Messages : 35

Infos suplémentaires
Instrument Favori:
Album préféré: Paradize
Connaît Indochine depuis: 2001

Re: Sur Les Toits Du Monde

le 17/3/2011, 21:13
Désolé, étant donné que je débute, j'ai du mal à trouver les notes à l'oreille :|

Quelqu'un saurait ce que joue Boris dans cette version après le riff original? (à 3:58 jusqu'à la fin)
avatar
Thomas
Modérateur LittlePonette
Modérateur LittlePonette
Messages : 2771

Infos suplémentaires
Instrument Favori: Guitare
Album préféré: 7000 danses
Connaît Indochine depuis: 2005 - Savoure le rouge

Re: Sur Les Toits Du Monde

le 17/3/2011, 22:19
je te trouve ça tout à l'heure =)
avatar
arno173
Novice Lvl. 2
Novice Lvl. 2
Messages : 35

Infos suplémentaires
Instrument Favori:
Album préféré: Paradize
Connaît Indochine depuis: 2001

Re: Sur Les Toits Du Monde

le 18/3/2011, 10:45
Pas de souci Wink Merci à toi!
avatar
Thomas
Modérateur LittlePonette
Modérateur LittlePonette
Messages : 2771

Infos suplémentaires
Instrument Favori: Guitare
Album préféré: 7000 danses
Connaît Indochine depuis: 2005 - Savoure le rouge

Re: Sur Les Toits Du Monde

le 18/3/2011, 14:24
ah merde j'avais oublié xD
je viens de me lever, je regarde ça attend

EDIT: je vais devoir re-reporter ça xD je pars à l'instant pour faire le son d'un spectacle
avatar
Thomas
Modérateur LittlePonette
Modérateur LittlePonette
Messages : 2771

Infos suplémentaires
Instrument Favori: Guitare
Album préféré: 7000 danses
Connaît Indochine depuis: 2005 - Savoure le rouge

Re: Sur Les Toits Du Monde

le 19/3/2011, 21:14
bon, c'est plus ou moins ça, j'ai pas pris beaucoup de temps parce que j'ai encore plein de trucs à faire, mais c'est déjà pas mal =p

------------------------------------------------------------------------
-----------------------------------15b-----------------------------------
-14b--12--------12-12-------12b----------------------------------------------------
--------------14-----------14-----------------------------------------------
------------------------------------------------------------------------
------------------------------------------------------------------------


------------------------------------------------------------------------
------------------------------------------------------------------------
14--12--11-12--11-9--7h9p7---9--9--9-------------------------------------------------------
------------------------------------------------------------------------
------------------------------------------------------------------------
------------------------------------------------------------------------

------------------------------------------------------------------------
------------------------------------------------------------------------
16--14--12---11--9-7-5--4---2-4-2-4-2-4--------------------------------------------------
------------------------------------------------------------------------
------------------------------------------------------------------------
------------------------------------------------------------------------


------------------------------------------------------------------------
-------3------3-------------------------------------------------------------
-2h4---2h4----plusieurs fois, puis une descente du genre
------------------------------------------------------------------------
------------------------------------------------------------------------
------------------------------------------------------------------------

------------------------------------------------------------------------
--5--3--------------------------------------------------------------------
----------4--2-0-----------------------------------------------------------
---------------------2-0--------------------------------------------------
-----------------------------3-2------------------------------------------
------------------------------------------------------------------------

finit sur un sol
avatar
arno173
Novice Lvl. 2
Novice Lvl. 2
Messages : 35

Infos suplémentaires
Instrument Favori:
Album préféré: Paradize
Connaît Indochine depuis: 2001

Re: Sur Les Toits Du Monde

le 20/3/2011, 18:44
Merci!!! Smile

Pas évident quand même... Mais je vais la garder de côté le temps de faire quelques progrès et je reviendrai dessus plus tard Wink
avatar
Thomas
Modérateur LittlePonette
Modérateur LittlePonette
Messages : 2771

Infos suplémentaires
Instrument Favori: Guitare
Album préféré: 7000 danses
Connaît Indochine depuis: 2005 - Savoure le rouge

Re: Sur Les Toits Du Monde

le 20/3/2011, 22:37
pas de problèmes ;-)
avatar
arno173
Novice Lvl. 2
Novice Lvl. 2
Messages : 35

Infos suplémentaires
Instrument Favori:
Album préféré: Paradize
Connaît Indochine depuis: 2001

Re: Sur Les Toits Du Monde

le 13/6/2011, 08:01
Bon alors, plusieurs mois et quelques progrès après, je suis d'accord avec toi ça doit être ça, le tout rend vraiment bien. Donc merci encore une fois Smile

Et j'adore ton avatar Thomas Laughing
avatar
HumanProject
Administrateur
Administrateur
Messages : 4333

Infos suplémentaires
Instrument Favori: Batterie
Album préféré: Dancetaria
Connaît Indochine depuis: Wax, 1996
http://twelvemonkeysonthemoon.wordpress.com/

Re: Sur Les Toits Du Monde

le 13/6/2011, 12:33
Made in HP cheers
avatar
Tristan
Posteur Acharné
Posteur Acharné
Messages : 312

Infos suplémentaires
Instrument Favori:
Album préféré: Dancetaria
Connaît Indochine depuis: Paradize
http://www.myspace.com/thedollyspace

Re: Sur Les Toits Du Monde

le 1/3/2012, 13:17
Est ce que quelqu'un saurait à combien de BPM est jouée cette chanson ? Notamment sur les derniers lives ?

Et si personne ne sait comment on fait pour trouver ? Smile
avatar
clem's
Adorateur/rice Débutant
Adorateur/rice Débutant
Messages : 1001

Infos suplémentaires
Instrument Favori: Guitare
Album préféré: Dancetaria
Connaît Indochine depuis: 2002
http://www.clemsmusic.com

Re: Sur Les Toits Du Monde

le 1/3/2012, 13:47
Je crois que HP avait conseillé un logiciel qui le calcule et qui s'appelle MixMeister BPM Analyzer. Là, en prenant le mp3 live du Dernier Petit Tour d'Alice et June, il donne 132, et pour le MCT au Grand Rex, 127...après, je ne sais pas si c'est fiable à chaque fois Wink
avatar
Tristan
Posteur Acharné
Posteur Acharné
Messages : 312

Infos suplémentaires
Instrument Favori:
Album préféré: Dancetaria
Connaît Indochine depuis: Paradize
http://www.myspace.com/thedollyspace

Re: Sur Les Toits Du Monde

le 1/3/2012, 14:49
D'accord Wink Je ne connaissais pas ce petit logiciel ! Merci beaucoup
avatar
Thomas
Modérateur LittlePonette
Modérateur LittlePonette
Messages : 2771

Infos suplémentaires
Instrument Favori: Guitare
Album préféré: 7000 danses
Connaît Indochine depuis: 2005 - Savoure le rouge

Re: Sur Les Toits Du Monde

le 1/3/2012, 15:45
Nico et moi, on a un plugin dans pro tools qui le trouve. Sinon, tu prends un métronome avec tap tempo et tu tappes jusqu'à ce que tu trouves =p

_________________
Moi, j'utilise ça =)
avatar
Ulysse
Adorateur/rice Habitué
Adorateur/rice Habitué
Messages : 1792

Infos suplémentaires
Instrument Favori:
Album préféré: Alice & June
Connaît Indochine depuis: 3 ans
http://myspace.com/morphine59

Re: Sur Les Toits Du Monde

le 2/3/2012, 00:32
Yen a aussi un dans Logic Smile (Metering-> BPM… Play et le tempo s'affiche en qq secondes)
avatar
Thomas
Modérateur LittlePonette
Modérateur LittlePonette
Messages : 2771

Infos suplémentaires
Instrument Favori: Guitare
Album préféré: 7000 danses
Connaît Indochine depuis: 2005 - Savoure le rouge

Re: Sur Les Toits Du Monde

le 2/3/2012, 08:26
^oui, très juste! Par contre, j'ai toujours eu des résultats bizarres avec, il marche mieux sur Logic.

_________________
Moi, j'utilise ça =)
avatar
demoiselle78
Novice Lvl. 1
Novice Lvl. 1
Messages : 7

Infos suplémentaires
Instrument Favori: Guitare
Album préféré: Dancetaria
Connaît Indochine depuis: Années 2002 (environ)

Re: Sur Les Toits Du Monde

le 3/4/2012, 18:04
Bonjour, quelqu'un a t-il un exemple vidéo joué de cette chanson ? Notamment de l'intro ? Merci d'avance Smile
avatar
Thomas
Modérateur LittlePonette
Modérateur LittlePonette
Messages : 2771

Infos suplémentaires
Instrument Favori: Guitare
Album préféré: 7000 danses
Connaît Indochine depuis: 2005 - Savoure le rouge

Re: Sur Les Toits Du Monde

le 3/4/2012, 20:57
faudrait pouvoir faire une réponse vidéo directement.... comment on fait si on veut enregistrer et upper rapidement?

EDIT: j'ai été paresseux quand même, mes notes sont pas hyper définies, mais c'est comme ça que je jouerais, moi, j'espère qu'on vient bien mes doigts Razz


Original Video - More videos at TinyPic

EDIT 2: je viens de faire ça à l'oreille, c'est pas tout à fait la tab qu'on a déjà ici, mais ça va aider? l'intro utilise clairement des bends, donc la tab proposée est pas bonne ^^

_________________
Moi, j'utilise ça =)
avatar
demoiselle78
Novice Lvl. 1
Novice Lvl. 1
Messages : 7

Infos suplémentaires
Instrument Favori: Guitare
Album préféré: Dancetaria
Connaît Indochine depuis: Années 2002 (environ)

Re: Sur Les Toits Du Monde

le 4/4/2012, 17:27
Merci beaucoup Thomas Smile je ne suis pas sûre d'y arriver aussi bien :$ !
avatar
Thomas
Modérateur LittlePonette
Modérateur LittlePonette
Messages : 2771

Infos suplémentaires
Instrument Favori: Guitare
Album préféré: 7000 danses
Connaît Indochine depuis: 2005 - Savoure le rouge

Re: Sur Les Toits Du Monde

le 4/4/2012, 21:35
bah, c'est pas compliqué

----------------------------------------------------
----------------------------------------------------
----------------------------------------------------
--7b-7b-7b-7-5---5------7b-7-5--7b-7-5--7b-7-5--------------
------------------7---------------------------------
----------------------------------------------------

et ensuite le refrain

E----------------------------------------------------
B----------------------------------------------------
G----------------------------------------------------
D--9-7-5-7-----5-5----5-5------------------------------------
A------------7-------7------7---------------------------
E----------------------------------------------------

puis pareil avec un 5 au lieu du 7 de la corde A


_________________
Moi, j'utilise ça =)
avatar
ced777
Posteur Acharné
Posteur Acharné
Messages : 420

Infos suplémentaires
Instrument Favori: Guitare
Album préféré: Dancetaria
Connaît Indochine depuis: 1998 environ ...
http://ced.777.perso.neuf.fr/

Re: Sur Les Toits Du Monde

le 5/4/2012, 20:58
Tu peux aussi jouer l'intro sur le haut du manche en jouant sur la corde de Sol (avec les bends et pull off).

G-----------
D---7b-5---

devient

G---2b-0--- (etc..)
D-----------

Ça dépend de l'affinité que tu as pour jouer sur le manche avec les bends, pull off. Wink
avatar
Tristan
Posteur Acharné
Posteur Acharné
Messages : 312

Infos suplémentaires
Instrument Favori:
Album préféré: Dancetaria
Connaît Indochine depuis: Paradize
http://www.myspace.com/thedollyspace

Re: Sur Les Toits Du Monde

le 24/4/2012, 13:23
Dernière petite question Wink Quelqu'un pourrait me décrypter la toute fin du solo ? Impossible de clairement entendre ou sont placés ses bends

http://www.youtube.com/watch?v=Ure2hX8QXVo à partir de 4.00

Merci d'avance Wink
avatar
Tristan
Posteur Acharné
Posteur Acharné
Messages : 312

Infos suplémentaires
Instrument Favori:
Album préféré: Dancetaria
Connaît Indochine depuis: Paradize
http://www.myspace.com/thedollyspace

Re: Sur Les Toits Du Monde

le 1/5/2012, 16:07
Je tente un pti' Up Wink
Contenu sponsorisé

Re: Sur Les Toits Du Monde

Voir le sujet précédentRevenir en hautVoir le sujet suivant
Permission de ce forum:
Vous ne pouvez pas répondre aux sujets dans ce forum