Partagez
Voir le sujet précédentAller en basVoir le sujet suivant
élodi
Posteur Acharné
Posteur Acharné
Messages : 479

Re: L'aventurier (Studio)

le 5/11/2007, 15:17
Sam a écrit:Ah et au passage, on voit bien la mule qui bosse :hihi:
J'ai vu ça aussi j'ai failli dire: "ah! toi aussi!?" Rolling Eyes
avatar
Ulysse
Adorateur/rice Habitué
Adorateur/rice Habitué
Messages : 1792

Infos suplémentaires
Instrument Favori:
Album préféré: Alice & June
Connaît Indochine depuis: 3 ans
http://myspace.com/morphine59

Re: L'aventurier (Studio)

le 6/11/2007, 09:56
Je sais qu'il y a un moyen de retrecir la tailel de la police generale sur Firefox… Sur mac, c'est ctrl+roulette vers le bas… Ca marche chez vous ?
avatar
nico84nv
Administrateur
Administrateur
Messages : 6021

Infos suplémentaires
Instrument Favori:
Album préféré: Nuits intimes
Connaît Indochine depuis: 2001
http://nico84nv.wordpress.com/

Re: L'aventurier (Studio)

le 6/11/2007, 10:01
Oui oui, idem, mais je dois beaucoup trop "dezoomer" pour avoir toutes les lignes lisibles, à tel point qu'on ne distingue aucun chiffre.
Mais bon, c'est pas grave. Et puis au pire, si je voulais vraiment la tab, j'édite ton message pour copier la tab dans le bloc note et c'est bon^^

_________________
avatar
Sam
Administrateur
Administrateur
Messages : 2964

Infos suplémentaires
Instrument Favori: Autre
Album préféré: Nuits intimes
Connaît Indochine depuis: 2002
http://goossy.cowblog.fr

Re: L'aventurier (Studio)

le 6/11/2007, 10:32
nico84nv a écrit:Et puis au pire, si je voulais vraiment la tab, j'édite ton message pour copier la tab
Ou le citer, sans valider, pour les non modos Wink

_________________
avatar
nico84nv
Administrateur
Administrateur
Messages : 6021

Infos suplémentaires
Instrument Favori:
Album préféré: Nuits intimes
Connaît Indochine depuis: 2001
http://nico84nv.wordpress.com/

Re: L'aventurier (Studio)

le 6/11/2007, 10:35
Oui c'est vrai^^

_________________
avatar
Coxie
Administrateur
Administrateur
Messages : 2597

Infos suplémentaires
Instrument Favori:
Album préféré: Dancetaria
Connaît Indochine depuis: Paradize : j'ai connu cet album, 2004 : j'ai couru acheter le DVD du 3.6.3, 2004/2005 : grande passion ^^

Re: L'aventurier (Studio)

le 6/11/2007, 14:25
Lol quelle daube IE xD
C'est vrai que j'imaginais pas ça non plus

Moi aussi c'est trop grand, mais j'ai la barre horizontale avec FF

Mais l'image que tu as mis Ulysse, elle est niquelle ^^

Et niveau accords : jpeux rien dire vu que je suis nulle :mrgreen:

_________________
Un clic chaque jour, de l'amour pour toujours

Quelque part dans ce monde, il y a cette personne rien que pour moi, qui m'aime parce que je suis moi...
avatar
Sam
Administrateur
Administrateur
Messages : 2964

Infos suplémentaires
Instrument Favori: Autre
Album préféré: Nuits intimes
Connaît Indochine depuis: 2002
http://goossy.cowblog.fr

Re: L'aventurier (Studio)

le 13/1/2009, 23:41
Je viens de faire un petit arrangement piano du gimmick de l'aventurier.

G#m E B C# donc.

_________________
ego-ceintré
Novice Lvl. 3
Novice Lvl. 3
Messages : 91

Re: L'aventurier (Studio)

le 14/1/2009, 00:11
Goood (l), J'aime beaucoup.
avatar
nico84nv
Administrateur
Administrateur
Messages : 6021

Infos suplémentaires
Instrument Favori:
Album préféré: Nuits intimes
Connaît Indochine depuis: 2001
http://nico84nv.wordpress.com/

Re: L'aventurier (Studio)

le 14/1/2009, 07:13
Bravo, c'est très joli Smile
Je viens de comprendre ce que tu faisais à la main gauche mg

_________________
avatar
Sam
Administrateur
Administrateur
Messages : 2964

Infos suplémentaires
Instrument Favori: Autre
Album préféré: Nuits intimes
Connaît Indochine depuis: 2002
http://goossy.cowblog.fr

Re: L'aventurier (Studio)

le 14/1/2009, 09:42
Merci ego-ceintré et Nico ^^

Et Nico: et oui... presque la même chose depuis des lustres.. :| le bête arpège d'un powerchord.
Car à chaque fois que j'essaye de faire un truc plus complexe, la main droite ne suit plus No

_________________
avatar
nico84nv
Administrateur
Administrateur
Messages : 6021

Infos suplémentaires
Instrument Favori:
Album préféré: Nuits intimes
Connaît Indochine depuis: 2001
http://nico84nv.wordpress.com/

Re: L'aventurier (Studio)

le 14/1/2009, 13:46
Nan ba c'est sûr faut y arriver.
Moi je me contente de moins que ça encore (je ne joue que la fondamentale, à l'octave).
Mais c'est un exercice à travailler, ça peut donner des trucs vraiment chouettes Smile

_________________
avatar
Krakatoa
Posteur Acharné
Posteur Acharné
Messages : 302

Infos suplémentaires
Instrument Favori:
Album préféré: Hanoï
Connaît Indochine depuis: assez longtemps

Re: L'aventurier (Studio)

le 7/4/2010, 15:11
COUPLETS

Une petite precision, si on se concentre on entend la guitare melodique qui joue ca pendant les couplets, avec la guitare rythmique (ecouteur DROIT) en synchro avec la boite a rythme: Smile

Code:
E:----------------------------------------------------------------
B:----------------------------------------------------------------
G:--------------4~--------------6~--------------4~----------------
D:----6(6)4-6---------6(6)4-6---------6(6)4-6---------6(6)--4---6~
A:--------------------------------------------------------6-------
E:----------------------------------------------------------------

E:----4-4-x-4---4-----4-4-x-4---4-----2-2-x-2---2-----4-4-x-4---4-
B:----4-4-x-4---4-----5-5-x-5---5-----4-4-x-4---4-----4-4-x-4---4-
G:----4-4-x-4---4-----4-4-x-4---4-----4-4-x-4---4-----6-6-x-6---6-
D:----6-6-x-6---6-----6-6-x-6---6-----4-4-x-4---4-----6-6-x-6---6-
A:----6-6-x-6---6-----x-x-x-x---x-----2-2-x-2---2-----4-4-x-4---4-
E:----4-4-x-4---4-----x-x-x-x---x-----2-2-x-2---2-----4-4-x-4---4-

  x-x-x-x-x-x-x-x-x-x-x-x-x-x-x-x-x-x-x-x-x-x-x-x-x-x-x-x-x-x-x-x
  | | | | | | | | | | | | | | | | | | | | | | | | | | | | | | | |
  | | x-x | | x | | | x-x | | x | | | x-x | | x | | | x-x | | x |
  x | | | x | | | x | | | x | | | x | | | x | | | x | | | x | | |

NB: Pour la batterie, la ligne au dessus c'est le Charleston, l'avant derniere, c'est la caisse claire, et celle du bas, c'est la grosse caisse. Suspect Smile
Faites bien attention de jouer avec le rythme, ici, les barrés et toutes les notes sont parfaitement synchronisées. Le tempo est d'environ 165 BPM

pour le rythme, ça devrait donner un truc comme ça:



La suite plus tard! Smile Smile
avatar
Sam
Administrateur
Administrateur
Messages : 2964

Infos suplémentaires
Instrument Favori: Autre
Album préféré: Nuits intimes
Connaît Indochine depuis: 2002
http://goossy.cowblog.fr

Re: L'aventurier (Studio)

le 11/5/2010, 19:46
Le C# est plutôt un C#m non ?

A certains endroits il sonne pas mal en majeur, mais la plupart du temps ça senble mieux en mineur.

_________________
avatar
Krakatoa
Posteur Acharné
Posteur Acharné
Messages : 302

Infos suplémentaires
Instrument Favori:
Album préféré: Hanoï
Connaît Indochine depuis: assez longtemps

Re: L'aventurier (Studio)

le 13/5/2010, 09:13
Aaaaaaaaaah on parle enfin de "l'affaire du fameux C#"!!!! Smile

T'as raison Sam:

Les Indologiens se separent en deux ecoles: Ceux qui jouent C# (majeur donc) et les autres C#m. Wink

En principe
Si on respecte la gamme No1 de l'Aventurier (hors refrain en Do majeur), ca se joue, il me semble, dans la gamme de Si majeur. bref autrement dit un accord C# majeur n'existe pas car la note Fa est hors gamme, tandis que le Mi en fait partie, ce qui voudrait dire que la version correcte est C#m. Wink
D'ailleurs, la partie chant des couplets c'est D#-Mi-D#-C#, D# et Mi ca fait déja deux notes accolées car l'écart n'est que d'un demi ton, on peut pas avoir un troisieme ecart d'un demi-ton dans une gamme en principe (un Fa en l'occurence). Le Mi est bel est bien inclu.
Je suis plutot pour le C# pour les intro concert (comme dans le Alice et June Tour, j'aime moins le C#m du 3.6.3 au début, le C# est plus intense avec les basses.) mais plutot le C#m en couplets.
Indochine au Perou a joué l'intro avec un C# et les couplets en C#m, intéressant non? Wink

Ensuite:
Quand on écoute l'Aventurier studio, c'est plutot neutre, un accord ouvert en quinte juste avec ces deux notes C#-Sol# scratch

Pour revenir a la guitare qui sonne C#m, en réalité elle joue un "C#sus4" (C#-fa#-Sol#), c'est l'accord que j'entend en général sur les versions instrus. Ni C#, ni C#m, plus proche de la quinte juste en fait. Ici j'aime bien la quinte plutot qu'un accord, elle a plus de puissance je trouve (ben comme les power chords d'ailleurs, meme principe...) Smile

En conclusion:
Bon, on est pas la pour se balancer nos quatre théories a la figure, mais voila:
_La regle de la gamme de Si impliquerait plutot un C#m
_Dans la version studio c'est une quinte juste (du moins pour le synthetiseur)
_Indochine a changé ses manieres de le jouer au cours des années, passant d'un accord ouvert, puis un C#m, puis un C#
_C'est dans les vieilles marmites qu'on fait les meilleures soupes
Smile
avatar
Ulysse
Adorateur/rice Habitué
Adorateur/rice Habitué
Messages : 1792

Infos suplémentaires
Instrument Favori:
Album préféré: Alice & June
Connaît Indochine depuis: 3 ans
http://myspace.com/morphine59

Re: L'aventurier (Studio)

le 13/5/2010, 09:44
Tout ça pour une histoire de DoDièse... Sad


Laughing Merci pour les infos !
avatar
Krakatoa
Posteur Acharné
Posteur Acharné
Messages : 302

Infos suplémentaires
Instrument Favori:
Album préféré: Hanoï
Connaît Indochine depuis: assez longtemps

Re: L'aventurier (Studio)

le 13/5/2010, 11:23
Smile Ahah c'est vrai Ulysse, on est un peu en train d'enc... les mouches! Laughing

Mais bon, puisqu'on est la pour faire de l'analyse...
On m'dis de carreler, j'carrelle on m'dis pas d'carreler, j'carelle po... Laughing

Et puis ca faisait longtemps que cette histoire de foutu Do diese me tourmentait, alors je me lache une fois pour toute... Smile
avatar
Sam
Administrateur
Administrateur
Messages : 2964

Infos suplémentaires
Instrument Favori: Autre
Album préféré: Nuits intimes
Connaît Indochine depuis: 2002
http://goossy.cowblog.fr

Re: L'aventurier (Studio)

le 14/5/2010, 12:01
Wahou, je ne savais pas qu'un tel débat existait sur cet accord Wink

Ca me fait penser au D(m) de stef 2 :twisted:

Mais merci en tout cas Krakatoa pour toutes ces infos ! Smile


Dernière édition par Sam le 14/5/2010, 16:13, édité 1 fois

_________________
avatar
Krakatoa
Posteur Acharné
Posteur Acharné
Messages : 302

Infos suplémentaires
Instrument Favori:
Album préféré: Hanoï
Connaît Indochine depuis: assez longtemps

Re: L'aventurier (Studio)

le 14/5/2010, 16:09
Ahah merci Sam! Smile Nan y a vraiment pas de quoi! Laughing

Ouiii tu parlais du D(m) de Stef II, j'y ai passé la nuit, nan mais un peu quand meme... C'est beaucoup plus dur que l'Aventurier cette fois...
Si Stef 2 est en Do majeur, alors ce sera un Dm, mais s'il est en G majeur, alors ce sera un D. Sur nuits intimes, il sonne plutot D...

Verdict:

Je crois que c'est un "D sus2" (ou un "A sus4", c'est pareil) avec les notes Ré-Mi-La, c'est pour ca que c'est aussi ambigu.

Bon c'est pas le bon article, mais puisqu'on s'y met... Smile

je le jouerai comme ceci:

Code:
D sus2:    ou alors comme ca:

E:--0----------------------5--
B:--3----------------------5--
G:--2----------------------7--
D:--0----------------------7--
A:--0----------------------5--
E:--0----------------------5--

Pareil, le C de Am C G D(sus2) il sonne parfois comme un "C add9" parce qu'on entend un Ré avec par moment voire un "C sus2" (et voila il recommence avec ses sus!)... Enfin bref. scratch

Moralité: Dans le doute, on sus l'accord! Laughing (bon ok, elle est nulle^^ :drunken: )
Bon, va falloir qu'je mette ca dans Stef II au cas ou... Rolling Eyes


Dernière édition par Krakatoa le 9/7/2010, 02:41, édité 1 fois
avatar
Krakatoa
Posteur Acharné
Posteur Acharné
Messages : 302

Infos suplémentaires
Instrument Favori:
Album préféré: Hanoï
Connaît Indochine depuis: assez longtemps

Re: L'aventurier (Studio)

le 16/5/2010, 07:16
Bon, jusqu'ici, je me suis uniquement occupé des guitares. Rolling Eyes
IL y a bien sur le synthé d'ensemble derrière chaque couplet...
D'après les versions instru dites professionelles, ça donnerai très exactement ça (?) :



Je mets la partition pour ceux que ça intéresse: Wink

cliquez sur la miniature:

Hébergement photos
avatar
Krakatoa
Posteur Acharné
Posteur Acharné
Messages : 302

Infos suplémentaires
Instrument Favori:
Album préféré: Hanoï
Connaît Indochine depuis: assez longtemps

Re: L'aventurier (Studio)

le 21/5/2010, 14:55
Salut les loulous!! Smile

Bon, bon, on va parler du refrain maintenant, et de l'arpège qui le précède.

En son, comme tout le monde sait, ça donne ça:



Partooooooooche:

Bon, j'espère que vous vous y retrouverez facilement, y a plusieurs pistes plus ou moins nécessaires...

Hébergement photos

ATTENNNNNTION!!!! ouaip, pour l'arpège, en réalité on ne joue pas les notes deux fois, la "vraie" version est celle postée plus haut par nico84nv, seulement comme le synthé a un petit effet d'écho on a l'impression que les notes sont dédoublées... D'ailleurs en live ils sont obligés de taper deux fois vu que le son est plus le même qu'en studio...

Voici une décomposition des différentes pistes, comme d'hab. Je suis pas sur à 100% malheureusement, mais c'est tout ce que l'interpolation permet en ce qui me concerne: Sad


Notez les mecs (et les filles^^) ce curieux synthé qu'on ne retrouve que sur "Canary Bay" il me semble, tendez l'oreille... Wink Le premier qui le trouve gagne un canard en plastique!


Aaaaaah quand il s'agit d'Indo je vous raconte pas les conn... au kilo que j'ai pu charger sur iPernity! Laughing

@++ Smile
avatar
Krakatoa
Posteur Acharné
Posteur Acharné
Messages : 302

Infos suplémentaires
Instrument Favori:
Album préféré: Hanoï
Connaît Indochine depuis: assez longtemps

Re: L'aventurier (Studio)

le 1/6/2010, 01:19
Hello! Smile Dites, j'ai trouvé une tab (sur Magic-tab.com) qui joue un truc intéressant, je ne sais pas si elle est exacte ou faite a l'oreille mais elle sonne plutot sympa. Elle est un demi-ton trop haute, il vaut mieux pas la lire sur leur site. A jouer pendant les couplets:

Code:
E:--------|----6-7-|--------|----7-9-|--------|----7-9-|--------|--------|
B:--------|7-9-----|5~------|7-9-----|--------|7-9-----|--------|----7-9-|
G:--------|--------|--------|--------|--------|--------|6~------|6-8-----|
D:6~------|--------|--------|--------|9~------|--------|--------|--------|
A:--------|--------|--------|--------|--------|--------|--------|--------|
E:--------|--------|--------|--------|--------|--------|--------|--------|

G:--------|--------|--------|--------|--------|--------|--------|--------|
D:--------|--------|2-2-2-2-|2-2-2-2-|--------|--------|--------|--------|
A:--------|--------|--------|--------|2-2-2-2-|2-2-2-2-|4-4-4-4-|4-4-4-4-|
E:4-4-4-4-|4-4-4-4-|--------|--------|--------|--------|--------|--------|

Ou une octave plus bas:

Code:
E:--------|--------|--------|--------|--------|--------|--------|--------|
B:--------|--------|--------|--------|--------|--------|--------|--------|
G:--------|----3-4-|--------|----4-6-|--------|----4-6-|--------|--------|
D:--------|4-6-----|2~------|4-6-----|--------|4-6-----|--------|----4-6-|
A:--------|--------|--------|--------|2~------|--------|4~------|4-6-----|
E:4~------|--------|--------|--------|--------|--------|--------|--------|

G:--------|--------|--------|--------|--------|--------|--------|--------|
D:--------|--------|2-2-2-2-|2-2-2-2-|--------|--------|--------|--------|
A:--------|--------|--------|--------|2-2-2-2-|2-2-2-2-|4-4-4-4-|4-4-4-4-|
E:4-4-4-4-|4-4-4-4-|--------|--------|--------|--------|--------|--------|

Et bien sûr l'inévitable bande son pour se donner une idée:



Dernière édition par Krakatoa le 4/6/2010, 05:07, édité 2 fois
avatar
Krakatoa
Posteur Acharné
Posteur Acharné
Messages : 302

Infos suplémentaires
Instrument Favori:
Album préféré: Hanoï
Connaît Indochine depuis: assez longtemps

Re: L'aventurier (Studio)

le 1/6/2010, 08:40
Hey les zamis :mrgreen:

On revient au refrain. Malheureusement, on entend pas de guitare mélodique, c'est un trip de synthé, alors on peut spéculer la dessus en employant des ressources proches:
Code:
Par exemple on peut se la faire "Zénith" qui semble assez fidele a l'original:

E:--------|--------|8~------|--------|--------|--------|10~~----|--------|
B:10~-----|8~------|--------|8~------|10~-----|8~------|--------|--------|
G:--------|--------|--------|--------|--------|--------|--------|--------|
D:--------|--------|--------|--------|--------|--------|--------|--------|
A:--------|--------|--------|--------|--------|--------|--------|--------|
E:--------|--------|--------|--------|--------|--------|--------|--------|

G:--------|--------|--------|--------|--------|--------|--------|--------|
D:0-0-0-0-|0-0-0-0-|--------|--------|--------|--------|--------|--------|
A:--------|--------|0-0-0-0-|0-0-0-0-|3-3-3-3-|3-3-3-3-|--------|--------|
E:--------|--------|--------|--------|--------|--------|3-3-3-3-|3-3-3-3-|

Ou façon Tour 88

E:--------|--------|--------|--------|--------|--------|--------|--------|
B:3-3-3-3-|3-3-3-3-|1-1-1-1-|1-1-1-1-|1-1-1-1-|1-1-1-1-|0-0-0-0-|0-0-0-0-|
G:--------|--------|--------|--------|--------|--------|--------|--------|
D:--------|--------|--------|--------|--------|--------|--------|--------|
A:--------|--------|--------|--------|--------|--------|--------|--------|
E:--------|--------|--------|--------|--------|--------|--------|--------|

G:--------|--------|--------|--------|--------|--------|--------|--------|
D:0-0-0-0-|0-0-0-0-|--------|--------|--------|--------|--------|--------|
A:--------|--------|0-0-0-0-|0-0-0-0-|3-3-3-3-|3-3-3-3-|--------|--------|
E:--------|--------|--------|--------|--------|--------|3-3-3-3-|3-3-3-3-|

A toute^^

Dis Sam (ou quelqu'autre âme charitable^^), comment tu fais pour avoir les bandeaux "guitar player" "rubik's cube player" dans la signature? C'est assez joli. C'est un truc BB code?

Sam: Hors sujet déplacé ici: http://indosound.mygoo.org/petites-annonces-f30/ou-trouver-des-userbars-t1242.htm
avatar
Boris-GuitarHero
Posteur Débutant
Posteur Débutant
Messages : 122

Infos suplémentaires
Instrument Favori: Guitare
Album préféré: La République des Meteors
Connaît Indochine depuis: 2002

Re: L'aventurier (Studio)

le 19/6/2011, 19:28
Moi à la place du mi au couplet je jouais un F# et ça passait très mal, merci Wink
avatar
Krakatoa
Posteur Acharné
Posteur Acharné
Messages : 302

Infos suplémentaires
Instrument Favori:
Album préféré: Hanoï
Connaît Indochine depuis: assez longtemps

Re: L'aventurier (Studio)

le 20/6/2011, 13:08
Accord de F#?? 0_o deux crans au dessus t'es pas tombé très loin, mais hélas en musique même une minime différence de note ça pardonne pas.
avatar
Boris-GuitarHero
Posteur Débutant
Posteur Débutant
Messages : 122

Infos suplémentaires
Instrument Favori: Guitare
Album préféré: La République des Meteors
Connaît Indochine depuis: 2002

Re: L'aventurier (Studio)

le 20/6/2011, 15:23
Ouais ouais c'est pour ça que je suis venu voir sur ce topic Wink
Contenu sponsorisé

Re: L'aventurier (Studio)

Voir le sujet précédentRevenir en hautVoir le sujet suivant
Permission de ce forum:
Vous ne pouvez pas répondre aux sujets dans ce forum