Partagez
Voir le sujet précédentAller en basVoir le sujet suivant
avatar
nico84nv
Administrateur
Administrateur
Messages : 6021

Infos suplémentaires
Instrument Favori:
Album préféré: Nuits intimes
Connaît Indochine depuis: 2001
http://nico84nv.wordpress.com/

L'aventurier (Studio)

le 17/3/2007, 15:51
Intro et couplets
G#m E B C#

Pré-refrain et refrain
Dm Am C G


Riff d'intro :

"Façon Indochine"

Code:

I-------2-----------------2-----------I
I---2-4---4-2---------2-4---4-2-4-2-4-I
I-1-----------4-1---4-----------------I
I-------------------------------------I
I-------------------------------------I
I-------------------------------------I



http://video.google.fr/videoplay?docid=-7719820507117747569

"Façon moi"

Code:

I-------------------------------------I
I-------7-----------------7-----------I
I---6-8---8-6---------6-8---8-6-8-6-8-I
I-6-----------9-6---9-----------------I
I-------------------------------------I
I-------------------------------------I



http://video.google.fr/videoplay?docid=8049648114592661339

Pré-refrain :



http://video.google.fr/videoplay?docid=-6058910079275054513

_________________


~ WordPress ~ MySpace ~
avatar
Sam
Administrateur
Administrateur
Messages : 2948

Infos suplémentaires
Instrument Favori: Autre
Album préféré: Nuits intimes
Connaît Indochine depuis: 2002
http://goossy.cowblog.fr

Re: L'aventurier (Studio)

le 17/3/2007, 16:17
géniales les 2 version du 1er riff, par contre l'arpège du pré-refrain (ce serait pas un pont d'ailleur ?) a quelques couac j'ai l'impression lol, pour le sol joué un peu trop tot, et la moné/descente de fin, pas évidente mine de rien.

(hs: j'adore l'effet optique quand on monte et descend la fenetre avec l'image du clavier de la vidéo mdr)

_________________
avatar
nico84nv
Administrateur
Administrateur
Messages : 6021

Infos suplémentaires
Instrument Favori:
Album préféré: Nuits intimes
Connaît Indochine depuis: 2001
http://nico84nv.wordpress.com/

Re: L'aventurier (Studio)

le 17/3/2007, 16:44
Arpège du pré-refrain, pont...je sais pas trop en fait. Question
J'appelle ça un pré-refrain car ça revient à chaque fois avant...le refrain !
En ce qui concerne les notes, en fait je l'ai toujours joué comme ça, et il me semble en effet que c'est quelque peu différent en fait (pour la montée/descente). Je sais pas trop Rolling Eyes

_________________


~ WordPress ~ MySpace ~
avatar
Sam
Administrateur
Administrateur
Messages : 2948

Infos suplémentaires
Instrument Favori: Autre
Album préféré: Nuits intimes
Connaît Indochine depuis: 2002
http://goossy.cowblog.fr

Re: L'aventurier (Studio)

le 17/3/2007, 16:58
Ah oui c'est vrai, j'avais oublié que le 1er couplet était vachement long, et je pensais que y'avait au moins un refrain avant lol, ça m'apprendra Laughing

Donc oui pré-refrain Smile

J'vais essayer de faire une vidéo du mien.

_________________
avatar
Sam
Administrateur
Administrateur
Messages : 2948

Infos suplémentaires
Instrument Favori: Autre
Album préféré: Nuits intimes
Connaît Indochine depuis: 2002
http://goossy.cowblog.fr

Re: L'aventurier (Studio)

le 17/3/2007, 17:44
http://video.google.fr/videoplay?docid=-5675297088075465579

J'en suis pas encore sûr non plus à 100% lol
(je tiens la cam de la main gauche alors ça tangue lol)

_________________
avatar
nico84nv
Administrateur
Administrateur
Messages : 6021

Infos suplémentaires
Instrument Favori:
Album préféré: Nuits intimes
Connaît Indochine depuis: 2001
http://nico84nv.wordpress.com/

Re: L'aventurier (Studio)

le 17/3/2007, 17:51
Ba ça sonne bien aussi lol
Et pour la cam, j'ai fait pareil Laughing

_________________


~ WordPress ~ MySpace ~
avatar
nico84nv
Administrateur
Administrateur
Messages : 6021

Infos suplémentaires
Instrument Favori:
Album préféré: Nuits intimes
Connaît Indochine depuis: 2001
http://nico84nv.wordpress.com/

Re: L'aventurier (Studio)

le 17/3/2007, 18:12
Je crois qu'on va arriver à se mettre d'accord :bounce:



http://video.google.fr/videoplay?docid=1770464130427445840

J'ai trouvé cette petite astuce lol
Source ? Le soong book Smile
Après, on peut, comme le fait si bien Sam, doubler les notes...

_________________


~ WordPress ~ MySpace ~
avatar
Sam
Administrateur
Administrateur
Messages : 2948

Infos suplémentaires
Instrument Favori: Autre
Album préféré: Nuits intimes
Connaît Indochine depuis: 2002
http://goossy.cowblog.fr

Re: L'aventurier (Studio)

le 17/3/2007, 19:02
Oui j'ai doublé les notes vu que j'n'ai pas prit un son type synthé (piano addicted mdr).

Bon, à peu de chose près j'avais juste Smile
J'suis parti du La alors qu'il fallait partir du Do et finir sur le La

Do - Ré - Mi - Sol - Mi - Ré - Do - La
C'est donc ça ?

_________________
avatar
Coxie
Administrateur
Administrateur
Messages : 2597

Infos suplémentaires
Instrument Favori:
Album préféré: Dancetaria
Connaît Indochine depuis: Paradize : j'ai connu cet album, 2004 : j'ai couru acheter le DVD du 3.6.3, 2004/2005 : grande passion ^^

Re: L'aventurier (Studio)

le 17/3/2007, 19:51
hey j'adore ces petits "essais" ^^
c'est bien pour apprendre Smile

faut vraiment que je m'y mette moi Embarassed

_________________
Un clic chaque jour, de l'amour pour toujours

Quelque part dans ce monde, il y a cette personne rien que pour moi, qui m'aime parce que je suis moi...
avatar
Sam
Administrateur
Administrateur
Messages : 2948

Infos suplémentaires
Instrument Favori: Autre
Album préféré: Nuits intimes
Connaît Indochine depuis: 2002
http://goossy.cowblog.fr

Re: L'aventurier (Studio)

le 17/3/2007, 20:05
Coxie a écrit:faut vraiment que je m'y mette moi Embarassed
oui oui oui! :­x

_________________
avatar
nico84nv
Administrateur
Administrateur
Messages : 6021

Infos suplémentaires
Instrument Favori:
Album préféré: Nuits intimes
Connaît Indochine depuis: 2001
http://nico84nv.wordpress.com/

Re: L'aventurier (Studio)

le 17/3/2007, 23:58
Sam a écrit:
Coxie a écrit:faut vraiment que je m'y mette moi Embarassed
oui oui oui! :­x
+1 Wink

_________________


~ WordPress ~ MySpace ~
élodi
Posteur Acharné
Posteur Acharné
Messages : 479

Re: L'aventurier (Studio)

le 21/9/2007, 18:09
Code:


Mi  ----------1-------------------------1-----------------
Si  ----2--4----4--2--0------------2--4---4--2--4--2--4---
Sol  -1-------------------1v-----1-------------------------    x2
Re  ------------------------------------------------------
La  ------------------------------------------------------
Mi  ------------------------------------------------------

G#m                  E                B                C#
Egaré dans la vallée infernale, le héros s'appelle Bob Morane
A la recherche de l'Ombre Jaune, le bandit s'appelle Mister Kali Jones
Avec l'ami Bill Ballantine, sauvé de justesse des crocodiles
Stop au trafic des Caraïbes, escale dans l'opération Nadawieb

Mi  ----------1-------------------------1-----------------
Si  ----2--4----4--2--0------------2--4---4--2--4--2--4---
Sol  -1-------------------1v-----1-------------------------  x2
Re  ------------------------------------------------------
La  ------------------------------------------------------
Mi  ------------------------------------------------------


G#m                    E                  B                    C#
Le coeur tendre dans le lit de Miss Clark, prisonnière du Sultan de Jarawak
En pleine terreur à Manicouagan, isolé dans la jungle birmane
Emprisonnant les flibustiers, l'ennemi est démasqué
On a volé le collier de Civa, le Maradjah en répondra

Mi  ----------1-------------------------1-----------------
Si  ----2--4----4--2--0------------2--4---4--2--4--2--4---
Sol  -1-------------------1v-----1-------------------------  x2
Re  ------------------------------------------------------
La  ------------------------------------------------------
Mi  ------------------------------------------------------


Dm                Am                C              G
Et soudain surgit face au vent, le vrai héros de tous les temps
Bob Morane contre tout chacal, l'aventurier contre tout guerrier
Bob Morane contre tout chacal, l'aventurier contre tout guerrier

G#m              E            B                  C#
Dérivant à bord du Sampang, l'aventure au parfum d'Ylalang
Son surnom, Samouraï du Soleil, en démantelant le gang de l'Archipel
L'otage des guerriers du Doc Xhatan, il s'en sortira toujours à temps
Tel l'aventurier solitaire, Bob Morane est le roi de la terre

Pont synthé

Dm                Am            C                G
Et soudain surgit face au vent, le vrai héros de tous les temps
Bob Morane contre tout chacal, l'aventurier contre tout guerrier
Bob Morane contre tout chacal, l'aventurier contre tout guerrier
avatar
Ulysse
Adorateur/rice Habitué
Adorateur/rice Habitué
Messages : 1792

Infos suplémentaires
Instrument Favori:
Album préféré: Alice & June
Connaît Indochine depuis: 3 ans
http://myspace.com/morphine59

Re: L'aventurier (Studio)

le 5/11/2007, 11:12
Bon ben voici ma version (avec les accords de puissance)

Code:
L' Aventurier
Indochine
STUDIO

Riff Intro :

E|------------------------|------------------------|------------------------|
B|--------------7---------|--------------7---------|------------------------|
G|------6---8-------------|------6---8-------------|------------------------|
D|-6----------------------|-6----------------------|-6----------------------|
A|------------------------|------------------------|------------------------|
E|------------------------|------------------------|------------------------|

E|------------------------|-----------------------|------------------------|------------------------|
B|--------------7---------|-----------------------|--------------7---------|------------------------|
G|------6---8--------8----|-6---------------------|------6---8--------8----|-6---8---6---8---8------|
D|-6----------------------|-----9---9---6---6-----|-9----------------------|------------------------|
A|------------------------|-----------------------|------------------------|------------------------|
E|------------------------|-----------------------|------------------------|------------------------|

Riff couplet :

E|---------------------------------|---------------------------------|
B|---------------------------------|---------------------------------|
G|---------------------------------|---------------------------------|
D|---------------------------------|---------------------------------|
A|-6---6---6---6---6---6---6---6---|-2---2---2---2---2---2---2---2---|
E|-4---4---4---4---4---4---4---4---|-0---0---0---0---0---0---0---0---|


E|---------------------------------|---------------------------------|---------------------------------|
B|---------------------------------|---------------------------------|---------------------------------|
G|---------------------------------|---------------------------------|---------------------------------|
D|-4---4---4---4---4---4---4---4---|-6---6---6---6---6---6---6---6---|---------------------------------|
A|-2---2---2---2---2---2---2---2---|-4---4---4---4---4---4---4---4---|-6---6---6---6---6---6---6---6---|
E|---------------------------------|---------------------------------|-4---4---4---4---4---4---4---4---|


E|---------------------------------|---------------------------------|---------------------------------|
B|---------------------------------|---------------------------------|---------------------------------|
G|---------------------------------|---------------------------------|---------------------------------|
D|---------------------------------|-4---4---4---4---4---4---4---4---|-6---6---6---6---6---6---6---6---|
A|-2---2---2---2---2---2---2---2---|-2---2---2---2---2---2---2---2---|-4---4---4---4---4---4---4---4---|
E|-0---0---0---0---0---0---0---0---|---------------------------------|---------------------------------|


E|---------------------------------|---------------------------------|---------------------------------|
B|---------------------------------|---------------------------------|---------------------------------|
G|---------------------------------|---------------------------------|---------------------------------|
D|---------------------------------|---------------------------------|-4---4---4---4---4---4---4---4---|
A|-6---6---6---6---6---6---6---6---|-2---2---2---2---2---2---2---2---|-2---2---2---2---2---2---2---2---|
E|-4---4---4---4---4---4---4---4---|-0---0---0---0---0---0---0---0---|---------------------------------|


E|---------------------------------|---------------------------------|---------------------------------|
B|---------------------------------|---------------------------------|---------------------------------|
G|---------------------------------|---------------------------------|---------------------------------|
D|-6---6---6---6---6---6---6---6---|---------------------------------|---------------------------------|
A|-4---4---4---4---4---4---4---4---|-6---6---6---6---6---6---6---6---|-2---2---2---2---2---2---2---2---|
E|---------------------------------|-4---4---4---4---4---4---4---4---|-0---0---0---0---0---0---0---0---|


E|---------------------------------|---------------------------------|---------------------------------|
B|---------------------------------|---------------------------------|---------------------------------|
G|---------------------------------|---------------------------------|---------------------------------|
D|-4---4---4---4---4---4---4---4---|-6---6---6---6---6---6---6---6---|---------------------------------|
A|-2---2---2---2---2---2---2---2---|-4---4---4---4---4---4---4---4---|-6---6---6---6---6---6---6---6---|
E|---------------------------------|---------------------------------|-4---4---4---4---4---4---4---4---|


E|---------------------------------|---------------------------------|---------------------------------|
B|---------------------------------|---------------------------------|---------------------------------|
G|---------------------------------|---------------------------------|---------------------------------|
D|---------------------------------|-4---4---4---4---4---4---4---4---|-6---6---6---6---6---6---6---6---|
A|-2---2---2---2---2---2---2---2---|-2---2---2---2---2---2---2---2---|-4---4---4---4---4---4---4---4---|
E|-0---0---0---0---0---0---0---0---|---------------------------------|---------------------------------|


E|---------------------------------|---------------------------------|---------------------------------|
B|---------------------------------|---------------------------------|---------------------------------|
G|---------------------------------|---------------------------------|---------------------------------|
D|---------------------------------|---------------------------------|-4---4---4---4---4---4---4---4---|
A|-6---6---6---6---6---6---6---6---|-2---2---2---2---2---2---2---2---|-2---2---2---2---2---2---2---2---|
E|-4---4---4---4---4---4---4---4---|-0---0---0---0---0---0---0---0---|---------------------------------|


E|---------------------------------|
B|---------------------------------|
G|---------------------------------|
D|-6---6---6---6---6---6---6---6---|
A|-4---4---4---4---4---4---4---4---|
E|---------------------------------|

puis :

E|---------------------|-------------------|------------------|------------------|
B|-x-x--9--------------|-------------------|x-x--9------------|------------------|
G|-x-x--8----x-x--9----|-------------------|x-x--8--x-x--9----|------------------|
D|-x-x--6----x-x--9----|-x-x--9--x-x--11---|x-x--6--x-x--9----|x-x--9--x-x--11---|
A|-----------x-x--7----|-x-x--9--x-x--11---|--------x-x--7----|x-x--9--x-x--11---|
E|---------------------|-x-x--7--x-x--9----|------------------|x-x--7--x-x--9----|

Refrain :
(pré-refrain)
E|---------------------|---------------------|-----------------------|-12--15----------------|
B|-18---17---15---13---|-15---13---10---8----|-10--8-8---10--13--15--|---------15--13--10----|
G|---------------------|---------------------|-----------------------|-----------------------|
D|---------------------|---------------------|-----------------------|-----------------------|
A|---------------------|---------------------|-----------------------|-----------------------|
E|---------------------|---------------------|-----------------------|-----------------------|


E|------------------------------|------------------------------|------------------------------|------------------------------|
B|------------------------------|------------------------------|------------------------------|------------------------------|
G|------------------------------|------------------------------|------------------------------|------------------------------|
D|-12---12--12--12--12--12--12--|-7----7---7---7---7---7---7---|-10---10--10--10--10--10--10--|-5----5---5---5---5---5---5---|
A|-12---12--12--12--12--12--12--|-7----7---7---7---7---7---7---|-10---10--10--10--10--10--10--|-5----5---5---5---5---5---5---|
E|-10---10--10--10--10--10--10--|-5----5---5---5---5---5---5---|-8----8---8---8---8---8---8---|-3----3---3---3---3---3---3---|

E|------------------------------|------------------------------|------------------------------|------------------------------|
B|------------------------------|------------------------------|------------------------------|------------------------------|
G|------------------------------|------------------------------|------------------------------|------------------------------|
D|-12---12--12--12--12--12--12--|-7----7---7---7---7---7---7---|-10---10--10--10--10--10--10--|-5----5---5---5---5---5---5---|
A|-12---12--12--12--12--12--12--|-7----7---7---7---7---7---7---|-10---10--10--10--10--10--10--|-5----5---5---5---5---5---5---|
E|-10---10--10--10--10--10--10--|-5----5---5---5---5---5---5---|-8----8---8---8---8---8---8---|-3----3---3---3---3---3---3---|

E|------------------------------|------------------------------|------------------------------|------------------------------|
B|------------------------------|------------------------------|------------------------------|------------------------------|
G|------------------------------|------------------------------|------------------------------|------------------------------|
D|-12---12--12--12--12--12--12--|-7----7---7---7---7---7---7---|-10---10--10--10--10--10--10--|-5----5---5---5---5---5---5---|
A|-12---12--12--12--12--12--12--|-7----7---7---7---7---7---7---|-10---10--10--10--10--10--10--|-5----5---5---5---5---5---5---|
E|-10---10--10--10--10--10--10--|-5----5---5---5---5---5---5---|-8----8---8---8---8---8---8---|-3----3---3---3---3---3---3---|

Pause :

E|------------------------------|------------------------------|------------------------------|
B|------------------------------|------------------------------|------------------------------|
G|------------------------------|------------------------------|------------------------------|
D|------------------------------|------------------------------|------------------------------|
A|--12-12-12-12-7-7-7-7-9-9-9-9-|5-5-5-5---12-12-12-12--7-7-7-7|-9-9-9-9-5-5-5-5--------------|
E|------------------------------|------------------------------|------------------------------|








Dernière édition par le 5/11/2007, 12:09, édité 1 fois
avatar
nico84nv
Administrateur
Administrateur
Messages : 6021

Infos suplémentaires
Instrument Favori:
Album préféré: Nuits intimes
Connaît Indochine depuis: 2001
http://nico84nv.wordpress.com/

Re: L'aventurier (Studio)

le 5/11/2007, 12:01
C'est illisible confused
Faut que tu enlèves des trais entre chaque note pour que les 6 lignes ne soient pas coupées, sinon, ba voilà quoi... Wink

_________________


~ WordPress ~ MySpace ~
avatar
Ulysse
Adorateur/rice Habitué
Adorateur/rice Habitué
Messages : 1792

Infos suplémentaires
Instrument Favori:
Album préféré: Alice & June
Connaît Indochine depuis: 3 ans
http://myspace.com/morphine59

Re: L'aventurier (Studio)

le 5/11/2007, 12:05
Euhh moi c'est très clair…

Ca affiche pas ça chez toi ? ->

avatar
Sam
Administrateur
Administrateur
Messages : 2948

Infos suplémentaires
Instrument Favori: Autre
Album préféré: Nuits intimes
Connaît Indochine depuis: 2002
http://goossy.cowblog.fr

Re: L'aventurier (Studio)

le 5/11/2007, 12:06
Je crois qu'on s'est un peu égaré entre versions studio et live, car ce topic est censé être que pour la studio Wink
Mais même depuis le post de Misterparamount ça s'est axé version live, donc j'pense que je vais arranger ça

_________________
avatar
Ulysse
Adorateur/rice Habitué
Adorateur/rice Habitué
Messages : 1792

Infos suplémentaires
Instrument Favori:
Album préféré: Alice & June
Connaît Indochine depuis: 3 ans
http://myspace.com/morphine59

Re: L'aventurier (Studio)

le 5/11/2007, 12:07
Non non sam, c'est bien la studio celle là, je sais qu'il est ecrit Live 3.6.3 mais c'est une erreur de ma part que je vais corriger… En tut cas moi je la joue comme ça pour la studio !
avatar
Sam
Administrateur
Administrateur
Messages : 2948

Infos suplémentaires
Instrument Favori: Autre
Album préféré: Nuits intimes
Connaît Indochine depuis: 2002
http://goossy.cowblog.fr

Re: L'aventurier (Studio)

le 5/11/2007, 12:12
Ulysse a écrit:Non non sam, c'est bien la studio celle là, je sais qu'il est ecrit Live 3.6.3 mais c'est une erreur de ma part que je vais corriger… En tut cas moi je la joue comme ça pour la studio !
Ok d'accord pas de problème ^^

_________________
avatar
nico84nv
Administrateur
Administrateur
Messages : 6021

Infos suplémentaires
Instrument Favori:
Album préféré: Nuits intimes
Connaît Indochine depuis: 2001
http://nico84nv.wordpress.com/

Re: L'aventurier (Studio)

le 5/11/2007, 12:26
Ulysse a écrit:Euhh moi c'est très clair…
Ca affiche pas ça chez toi ?
Non non, loin de là.
Ca vient probablement (c'est même certain) de la résolution de mon ecran.
Mais bon, perso, c'est pas super important, mais ceux qui souhaiteraient savoir jouer cette song et qui voient comme moi, c'est gênant je pense.

Et merci Sam pour cette rectification sur le topic, c'est vrai que c'était confus entre la version live et la version studio

_________________


~ WordPress ~ MySpace ~
avatar
Sam
Administrateur
Administrateur
Messages : 2948

Infos suplémentaires
Instrument Favori: Autre
Album préféré: Nuits intimes
Connaît Indochine depuis: 2002
http://goossy.cowblog.fr

Re: L'aventurier (Studio)

le 5/11/2007, 12:36
nico84nv a écrit:Ca vient probablement (c'est même certain) de la résolution de mon ecran.
Mais bon, perso, c'est pas super important, mais ceux qui souhaiteraient savoir jouer cette song et qui voient comme moi, c'est gênant je pense.

Et merci Sam pour cette rectification sur le topic, c'est vrai que c'était confus entre la version live et la version studio
Ah ok, le fait de devoir déplacer la fenêtre vers la droite parce qu'on ne voit pas tout ?
C'est vrai que c'est un peu dommage, mais je sais pas si, à part raccourcir les "-" comme t'as dit, il y a une solution..
Mais moi en cadrant bien, j'arrive quasiment à tout voir, et j'ai la barre des tâche sur le côté gauche ^^ et en 1024x768

Et.. de rien ^^

_________________
avatar
nico84nv
Administrateur
Administrateur
Messages : 6021

Infos suplémentaires
Instrument Favori:
Album préféré: Nuits intimes
Connaît Indochine depuis: 2001
http://nico84nv.wordpress.com/

Re: L'aventurier (Studio)

le 5/11/2007, 13:19
Nan, je n'ai pas de barre de défilement horizontale.
Voilà mon écran :

_________________


~ WordPress ~ MySpace ~
élodi
Posteur Acharné
Posteur Acharné
Messages : 479

Re: L'aventurier (Studio)

le 5/11/2007, 13:27




Qu'est-ce que je devrais dire moi? Shocked :ugly:
élodi
Posteur Acharné
Posteur Acharné
Messages : 479

Re: L'aventurier (Studio)

le 5/11/2007, 13:30
nico84nv a écrit:Nan, je n'ai pas de barre de défilement horizontale.
Voilà mon écran :
Quelle idée d'utiliser internet explorer Rolling Eyes :tongue:
avatar
Sam
Administrateur
Administrateur
Messages : 2948

Infos suplémentaires
Instrument Favori: Autre
Album préféré: Nuits intimes
Connaît Indochine depuis: 2002
http://goossy.cowblog.fr

Re: L'aventurier (Studio)

le 5/11/2007, 14:16
élodi a écrit:
nico84nv a écrit:Nan, je n'ai pas de barre de défilement horizontale.
Voilà mon écran :
Quelle idée d'utiliser internet explorer Rolling Eyes :tongue:
Laughing c'est vrai que c'est pas faux :hihi:

J'avoue que j'imaginais pas du tout ça! En effet là c'est illisible, mais avec Firefox aucun problème lol.
Ah et au passage, on voit bien la mule qui bosse :hihi:

_________________
élodi
Posteur Acharné
Posteur Acharné
Messages : 479

Re: L'aventurier (Studio)

le 5/11/2007, 15:17
Sam a écrit:Ah et au passage, on voit bien la mule qui bosse :hihi:
J'ai vu ça aussi j'ai failli dire: "ah! toi aussi!?" Rolling Eyes
Contenu sponsorisé

Re: L'aventurier (Studio)

Voir le sujet précédentRevenir en hautVoir le sujet suivant
Permission de ce forum:
Vous ne pouvez pas répondre aux sujets dans ce forum