Partagez
Voir le sujet précédentAller en basVoir le sujet suivant
avatar
Astroboyz
Posteur Acharné
Posteur Acharné
Messages : 444

Infos suplémentaires
Instrument Favori:
Album préféré: Indo Live
Connaît Indochine depuis: 2002 ( gros fan depuis 1 an )
http://astroboyz.skyblog.com

Alice et June ( Studio )

le 29/2/2008, 12:42
Intro Oli

---------------------------------------------------
---------------------------------------------------
---------------------------------------------------
-8-8-8-8-7-7-7-7-12-12-12-12-12-12-12-12-
---------------------------------------------------
---------------------------------------------------



Intro Boris

---------------------------------------------------
---------------------------------------------------
------6---------6-----------10------------10----
-8-8----8-7-7----7-12-12----12-12-12-----12-
---------------------------------------------------
---------------------------------------------------





Pré-couplet n°1 ( entrée batterie )

Oli

-----------------------------------------
-----------------------------------------
-----------------------------------------
-8-8-8-8--3-3-3-3--7-7-7-7-7-7-7-7-
-8-8-8-8--3-3-3-3--7-7-7-7-7-7-7-7-
-6-6-6-6--1-1-1-1--5-5-5-5-5-5-5-5-

Boris

---------------------------------------------------
---------------------------------------------------
------6---------6-----------10------------10----
-8-8----8-7-7----7-12-12----12-12-12-----12-
---------------------------------------------------
---------------------------------------------------


Couplet n°1

Boris ( Et 1,2,3 Alice et née au pays des cauchemars [...] Je pourrais peut être la sauver )

---------------------------------------------------
---------------------------------------------------
---------------------------------------------------
-8-8-8-8-7-7-7-7-12-12-12-12-12-12-12-12-
---------------------------------------------------
---------------------------------------------------

Oli ( Mais qu'est ce qu'on a fait mal ... )

-------------
-------------
----------7--
-8---3---7-- Désolé pour le rythme, je bug là Shocked
-8---3---5--
-6---1-------


Refrain ( Sans paroles, mais on peut l'appeler comme ça )

Oli

----------------------------------------------------
----------------------------------------------------
----------------------------------------------------
-8-8-8-8--7-7-7-7--12-12-12-12-12-12-12-12-
-8-8-8-8--7-7-7-7--12-12-12-12-12-12-12-12-
-6-6-6-6--5-5-5-5--10-10-10-10-10-10-10-10-

Boris

---------------------------------
---------------------------------
---3-2----3-2----3-2-0-2------
--------0------3----------------
---------------------------------
---------------------------------




Couplet n°2

Oli & Boris

-------------
-------------
----------7--
-8---3---7--
-8---3---5--
-6---1-------


Refrain

Oli

----------------------------------------------------
----------------------------------------------------
----------------------------------------------------
-8-8-8-8--7-7-7-7--12-12-12-12-12-12-12-12- x8
-8-8-8-8--7-7-7-7--12-12-12-12-12-12-12-12-
-6-6-6-6--5-5-5-5--10-10-10-10-10-10-10-10-

Boris

----------------------------------------------------
----------------------------------------------------
----------------------------------------------------
-8-8-8-8--7-7-7-7--12-12-12-12-12-12-12-12- x4
-8-8-8-8--7-7-7-7--12-12-12-12-12-12-12-12-
-6-6-6-6--5-5-5-5--10-10-10-10-10-10-10-10-

---------------------------------
---------------------------------
---3-2----3-2----3-2-0-2------
--------0------3---------------- x4
---------------------------------
---------------------------------


Riff Boris

----------------------------------------------------------------------------------
----------------------------------------------------------------------------------
----------------------------------------------------------------------------------
--12----12--10--12--10---------------------------------------------8--7------
----------------------------12-------12--12--10--8-----8--8--10--------------
----------------------------------------------------------------------------------




" Mais c'est qu'ici il n'y plus de place, pour qu'elle puisse grandir davantage, elle n'avais juste qu'un ennui, c'est de comprendre les jours de pluie, mais je suis là ... "


Reprise couplet n°1

Oli & Boris

-------------
-------------
----------7--
-8---3---7--
-8---3---5--
-6---1------


Refrain Final

Oli

----------------------------------------------------
----------------------------------------------------
----------------------------------------------------
-8-8-8-8--7-7-7-7--12-12-12-12-12-12-12-12- x6
-8-8-8-8--7-7-7-7--12-12-12-12-12-12-12-12-
-6-6-6-6--5-5-5-5--10-10-10-10-10-10-10-10-

Boris

---------------------------------
---------------------------------
---3-2----3-2----3-2-0-2------
--------0------3---------------- x4
---------------------------------
---------------------------------

------------
------------
---3-2-----
--------0--
------------
------------


Voila ce que je joue, j'espère que vous comprendrez.


Dernière édition par Astroboyz le 29/2/2008, 16:36, édité 1 fois
avatar
Ulysse
Adorateur/rice Habitué
Adorateur/rice Habitué
Messages : 1792

Infos suplémentaires
Instrument Favori:
Album préféré: Alice & June
Connaît Indochine depuis: 3 ans
http://myspace.com/morphine59

Re: Alice et June ( Studio )

le 29/2/2008, 16:31
Rectification
Intro Boris

---------------------------------------------------
---------------------------------------------------
------10---------10-----------10------------10----
-8-8-----8-7-7-----7-12-12-----12-12-12------12-
---------------------------------------------------
---------------------------------------------------

Oli

-------------------------------------------
-------------------------------------------
------------------------7-7-7-7-7-7-7-7
-8-8-8-8--3-3-3-3--7-7-7-7-7-7-7-7
-8-8-8-8--3-3-3-3--5-5-5-5-5-5-5-5
-6-6-6-6--1-1-1-1---------------------


Dernière édition par Ulysse le 22/7/2008, 18:45, édité 2 fois
avatar
Astroboyz
Posteur Acharné
Posteur Acharné
Messages : 444

Infos suplémentaires
Instrument Favori:
Album préféré: Indo Live
Connaît Indochine depuis: 2002 ( gros fan depuis 1 an )
http://astroboyz.skyblog.com

Re: Alice et June ( Studio )

le 29/2/2008, 16:34
Ok merci.
C'est a vrai dire le seul endroit ou j'ai galéré, parce que le reste pour moi est niquel ...
avatar
Astroboyz
Posteur Acharné
Posteur Acharné
Messages : 444

Infos suplémentaires
Instrument Favori:
Album préféré: Indo Live
Connaît Indochine depuis: 2002 ( gros fan depuis 1 an )
http://astroboyz.skyblog.com

Re: Alice et June ( Studio )

le 29/2/2008, 16:37
Par contre, je crois que ce que tu m'a fait rectifier, c'est l'intro avec la batterie nan ?
avatar
Ulysse
Adorateur/rice Habitué
Adorateur/rice Habitué
Messages : 1792

Infos suplémentaires
Instrument Favori:
Album préféré: Alice & June
Connaît Indochine depuis: 3 ans
http://myspace.com/morphine59

Re: Alice et June ( Studio )

le 29/2/2008, 16:52
Oui, entrée batterie + refrain Wink


Dernière édition par Ulysse le 29/2/2008, 16:56, édité 2 fois
avatar
Astroboyz
Posteur Acharné
Posteur Acharné
Messages : 444

Infos suplémentaires
Instrument Favori:
Album préféré: Indo Live
Connaît Indochine depuis: 2002 ( gros fan depuis 1 an )
http://astroboyz.skyblog.com

Re: Alice et June ( Studio )

le 29/2/2008, 16:53
Nan refrain c'est ce que j'ai mis Wink
avatar
Ulysse
Adorateur/rice Habitué
Adorateur/rice Habitué
Messages : 1792

Infos suplémentaires
Instrument Favori:
Album préféré: Alice & June
Connaît Indochine depuis: 3 ans
http://myspace.com/morphine59

Re: Alice et June ( Studio )

le 29/2/2008, 16:58
Bne moi je l'ai jamais joué comme ça et jamais vu joué comme ça Wink Dans le topic Alice et June (Live) C'est A# F Dm


Je joue le solo comme ça, car on utilise les mêmes cases et les mêmes cordes (à peu près) que pour le refrain
Code:

Mi  -----------------------------------------
Si  -3--1-3-1--------------------------------
Sol ------------2-----2-2-0-----------0--3--2
Re ---------------------------3---3-3--------
La ------------------------------------------
Mi  -----------------------------------------

avatar
Astroboyz
Posteur Acharné
Posteur Acharné
Messages : 444

Infos suplémentaires
Instrument Favori:
Album préféré: Indo Live
Connaît Indochine depuis: 2002 ( gros fan depuis 1 an )
http://astroboyz.skyblog.com

Re: Alice et June ( Studio )

le 29/2/2008, 16:59
En live peut être, mais en studio, le son est plutôt grave Wink
avatar
Ulysse
Adorateur/rice Habitué
Adorateur/rice Habitué
Messages : 1792

Infos suplémentaires
Instrument Favori:
Album préféré: Alice & June
Connaît Indochine depuis: 3 ans
http://myspace.com/morphine59

Re: Alice et June ( Studio )

le 29/2/2008, 17:06
En tout cas c'est dans le songbook.
avatar
Astroboyz
Posteur Acharné
Posteur Acharné
Messages : 444

Infos suplémentaires
Instrument Favori:
Album préféré: Indo Live
Connaît Indochine depuis: 2002 ( gros fan depuis 1 an )
http://astroboyz.skyblog.com

Re: Alice et June ( Studio )

le 29/2/2008, 17:11
Bah moi je trouve que ca sonne mieux comme ca Wink
Apres, tu as surement raison, mais moi jprefere ma maniere Razz
élodi
Posteur Acharné
Posteur Acharné
Messages : 479

Re: Alice et June ( Studio )

le 22/7/2008, 18:36
Ulysse a écrit:
Oli

-------------------------------------------
-------------------------------------------
------------------------7-7-7-7-7-7-7-7
-8-8-8-8--1-1-1-1--7-7-7-7-7-7-7-7
-8-8-8-8--1-1-1-1--5-5-5-5-5-5-5-5
-6-6-6-6--3-3-3-3---------------------
J'imagine que tu as inversé les 1 et les 3!
avatar
Ulysse
Adorateur/rice Habitué
Adorateur/rice Habitué
Messages : 1792

Infos suplémentaires
Instrument Favori:
Album préféré: Alice & June
Connaît Indochine depuis: 3 ans
http://myspace.com/morphine59

Re: Alice et June ( Studio )

le 22/7/2008, 18:44
Oui désolé ^^!
avatar
Astroboyz
Posteur Acharné
Posteur Acharné
Messages : 444

Infos suplémentaires
Instrument Favori:
Album préféré: Indo Live
Connaît Indochine depuis: 2002 ( gros fan depuis 1 an )
http://astroboyz.skyblog.com

Re: Alice et June ( Studio )

le 23/7/2008, 09:12
J'avais même pas fait gaffe xD
tanguezo
Posteur Habitué
Posteur Habitué
Messages : 250

Infos suplémentaires
Instrument Favori:
Album préféré: 3.6.3
Connaît Indochine depuis: très petit

Re: Alice et June ( Studio )

le 27/7/2008, 09:55
A quand nico84nv qui nous en fait une version acoustique avec sa gratte ? Smile
avatar
Swan Adora
Novice Lvl. 1
Novice Lvl. 1
Messages : 11

Infos suplémentaires
Instrument Favori:
Album préféré: Dancetaria
Connaît Indochine depuis: Pas bien longtemps (1 an et demi)

Re: Alice et June ( Studio )

le 20/1/2011, 18:08
Bonsoir Smile Quelqu'un sait comment "transposer" ça au piano? Les chiffres correspondent aux cordes, mais quelles cordes correspondent à quelles notes?
Merci Smile
avatar
nico84nv
Administrateur
Administrateur
Messages : 6021

Infos suplémentaires
Instrument Favori:
Album préféré: Nuits intimes
Connaît Indochine depuis: 2001
http://nico84nv.wordpress.com/

Re: Alice et June ( Studio )

le 20/1/2011, 18:24
Les cordes d'une guitare, à vide, donnent
Mi La Ré Sol Si Mi
Par exemple, pour le riff d'intro,les notes sont donc Sib La Ré...
Les 3 accords tout du long sont :
A# : Fa Sib Ré
F : Fa La Do
Dm : Fa La Ré
(tu joues les notes des accords comme tu veux, du moment qu'il y a les 3) Wink
Tu peux jouer ces accords avec ta main droite, et à gauche, tu peux jouer la fondamentale (La# pour A#, Fa pour F et Ré pour Dm)


Dernière édition par nico84nv le 20/1/2011, 21:35, édité 1 fois

_________________
avatar
Ulysse
Adorateur/rice Habitué
Adorateur/rice Habitué
Messages : 1792

Infos suplémentaires
Instrument Favori:
Album préféré: Alice & June
Connaît Indochine depuis: 3 ans
http://myspace.com/morphine59

Re: Alice et June ( Studio )

le 20/1/2011, 21:14
nico84nv a écrit:
Tu peux jouer ces accords avec ta main droite, et à gauche, tu peux jouer la fondamentale (Si# pour A#, Fa pour F et Ré pour Dm)


Petite rectification.. C'est La# pour A# Smile
avatar
nico84nv
Administrateur
Administrateur
Messages : 6021

Infos suplémentaires
Instrument Favori:
Album préféré: Nuits intimes
Connaît Indochine depuis: 2001
http://nico84nv.wordpress.com/

Re: Alice et June ( Studio )

le 20/1/2011, 21:35
Euh oui lol bien entendu^^
J'avais mis Sib avant, et j'ai changé. Je rectifie, merci Wink

_________________
avatar
Swan Adora
Novice Lvl. 1
Novice Lvl. 1
Messages : 11

Infos suplémentaires
Instrument Favori:
Album préféré: Dancetaria
Connaît Indochine depuis: Pas bien longtemps (1 an et demi)

Re: Alice et June ( Studio )

le 21/1/2011, 17:51
Ok merci beaucoup! Je vais voir ce que je peux faire Smile
ce forum est super en tout cas, on apprend plein de trucs Smile
avatar
Ulysse
Adorateur/rice Habitué
Adorateur/rice Habitué
Messages : 1792

Infos suplémentaires
Instrument Favori:
Album préféré: Alice & June
Connaît Indochine depuis: 3 ans
http://myspace.com/morphine59

Re: Alice et June ( Studio )

le 21/1/2011, 21:07
Cool
Contenu sponsorisé

Re: Alice et June ( Studio )

Voir le sujet précédentRevenir en hautVoir le sujet suivant
Permission de ce forum:
Vous ne pouvez pas répondre aux sujets dans ce forum