Partagez
Voir le sujet précédentAller en basVoir le sujet suivant
Krakatoa
Posteur Acharné
Posteur Acharné
Messages : 302

Infos suplémentaires
Instrument Favori:
Album préféré: Hanoï
Connaît Indochine depuis: assez longtemps

Re: Drugstar (studio)

le 2/2/2011, 10:36
gnnnnn :mrgreen:
avatar
indo-rouen-09
Novice Lvl. 3
Novice Lvl. 3
Messages : 62

Infos suplémentaires
Instrument Favori:
Album préféré: Dancetaria
Connaît Indochine depuis: paradise

Re: Drugstar (studio)

le 20/5/2011, 07:32
Thomas a écrit:
------------------------------------------
------------------------------------------
-----10-----11----11------10-----10--11---------------
-12-----12------------12------12------------------
------------------------------------------
------------------------------------------


puis le refrain

---------------------------------------------------------------
-----15-----17--17-----15-----17--15---------------------------------------
-12-----12----------12-----12------------------------------------------
---------------------------------------------------------------
---------------------------------------------------------------
---------------------------------------------------------------


---------------------------------------------------------------
--12---13--13---12---13-12-------------------------------------------------
9----9---------9-----9---------------------------------------------
---------------------------------------------------------------
---------------------------------------------------------------
---------------------------------------------------------------



j'aurrai une question comment peut on transcrire ces tab pour le synthe (en note)?
si quelqu'un pourrai m'explique sa serais sympas Embarassed
avatar
HumanProject
Administrateur
Administrateur
Messages : 4333

Infos suplémentaires
Instrument Favori: Batterie
Album préféré: Dancetaria
Connaît Indochine depuis: Wax, 1996
http://twelvemonkeysonthemoon.wordpress.com/

Re: Drugstar (studio)

le 20/5/2011, 09:45
Chaque corde est égale à une note.
Dans l'ordre d'une tablature :
Mi
Si
Sol

La
Mi

Ensuite, chaque numéro correspond à une case, ou un demi ton.

De ce fait, la première note du refrain sera sur la corde de Sol, à la 12° case, soit un Sol d'une octave au dessus Wink

Le 15 d'après est sur la corde de SI, donc ça sera un Ré Smile

En gros, ça donne :

---------------------------------------------------------------
---------------------------------------------------------------
-----10-----11----11------10-----10--11-------------------
-12-----12------------12------12----------------------------
---------------------------------------------------------------
---------------------------------------------------------------
Ré Fa Ré Fa# Fa# Ré Fa Ré Fa Fa#
---------------------------------------------------------------
-----15-----17--17-----15-----17--15----------------------
-12-----12----------12-----12-------------------------------
---------------------------------------------------------------
---------------------------------------------------------------
---------------------------------------------------------------
Sol Ré Sol Mi Mi Sol Ré Sol Mi Ré

et pour finir :
---------------------------------------------------------------
--12---13--13---12---13-12--------------------------------
9----9---------9-----9---------------------------------------
---------------------------------------------------------------
---------------------------------------------------------------
---------------------------------------------------------------
Mi Si Mi Do Do Mi Si Mi Do Si


Voilà, j'espère que je me suis pas planté Wink
avatar
indotab
Posteur Acharné
Posteur Acharné
Messages : 398

Infos suplémentaires
Instrument Favori:
Album préféré: Paradize
Connaît Indochine depuis: L'aventurier
https://www.facebook.com/https://www.facebook.com/pages/Ph%C3%A9

Re: Drugstar (studio)

le 20/5/2011, 10:48
HumanProject a écrit:
Voilà, j'espère que je me suis pas planté Wink

Ben non c'est tout bon !

indo-rouen-09 a écrit:
j'aurrai une question comment peut on transcrire ces tab pour le synthe (en note)?
si quelqu'un pourrai m'explique sa serais sympas
Si tu utilise guitarpro (ou Tuxguitar c'est gratuit), en tapant la tablature tu as en parallèle la notation standard des notes.


avatar
indo-rouen-09
Novice Lvl. 3
Novice Lvl. 3
Messages : 62

Infos suplémentaires
Instrument Favori:
Album préféré: Dancetaria
Connaît Indochine depuis: paradise

Re: Drugstar (studio)

le 20/5/2011, 16:17
merci bien je vai pouvoir mi mettre alors !! cheers
avatar
pascat25
Novice Lvl. 2
Novice Lvl. 2
Messages : 40

Infos suplémentaires
Instrument Favori: Guitare
Album préféré: Paradize
Connaît Indochine depuis: 1986

Re: Drugstar (studio)

le 13/9/2013, 15:56
slt nico84nv peut tu me faire une vidéo du début de drugstar pour voir si c'est juste ou pas au niveau du rythme et batement du médaitor merci a toi
avatar
nico84nv
Administrateur
Administrateur
Messages : 6021

Infos suplémentaires
Instrument Favori:
Album préféré: Nuits intimes
Connaît Indochine depuis: 2001
http://nico84nv.wordpress.com/

Re: Drugstar (studio)

le 13/9/2013, 16:25
Hmm je n'ai plus la possibilité (et le temps) de faire des vidéos désolé.
Tu voudrais savoir quoi exactement ? Le rythme pour l'enchaînement D G de l'intro à la guitare ?

_________________


~ WordPress ~ MySpace ~
avatar
pascat25
Novice Lvl. 2
Novice Lvl. 2
Messages : 40

Infos suplémentaires
Instrument Favori: Guitare
Album préféré: Paradize
Connaît Indochine depuis: 1986

Re: Drugstar (studio)

le 13/9/2013, 16:58
oui le rythme et le battement du médiator, et l’enchaînement vais voir si j'ai bien juste ou pas merci a toi 
avatar
nico84nv
Administrateur
Administrateur
Messages : 6021

Infos suplémentaires
Instrument Favori:
Album préféré: Nuits intimes
Connaît Indochine depuis: 2001
http://nico84nv.wordpress.com/

Re: Drugstar (studio)

le 13/9/2013, 23:46
Réputation du message : 100% (1 vote)
Ba si tu trouves que ça sonne bien, c'est le principal non ?

_________________


~ WordPress ~ MySpace ~
avatar
HumanProject
Administrateur
Administrateur
Messages : 4333

Infos suplémentaires
Instrument Favori: Batterie
Album préféré: Dancetaria
Connaît Indochine depuis: Wax, 1996
http://twelvemonkeysonthemoon.wordpress.com/

Re: Drugstar (studio)

le 14/9/2013, 00:33
nico84nv a écrit:Ba si tu trouves que ça sonne bien, c'est le principal non ?
Wtf 
avatar
pascat25
Novice Lvl. 2
Novice Lvl. 2
Messages : 40

Infos suplémentaires
Instrument Favori: Guitare
Album préféré: Paradize
Connaît Indochine depuis: 1986

Re: Drugstar (studio)

le 14/9/2013, 09:11
c'était juste pr voir par curiosité
avatar
pascat25
Novice Lvl. 2
Novice Lvl. 2
Messages : 40

Infos suplémentaires
Instrument Favori: Guitare
Album préféré: Paradize
Connaît Indochine depuis: 1986

Re: Drugstar (studio)

le 3/11/2013, 17:00
slt à tous, tjrs personne pour me montré en vidéo l'intro ? merci a vous tous 
Contenu sponsorisé

Re: Drugstar (studio)

Voir le sujet précédentRevenir en hautVoir le sujet suivant
Permission de ce forum:
Vous ne pouvez pas répondre aux sujets dans ce forum