Partagez
Voir le sujet précédentAller en basVoir le sujet suivant
Ulysse
Adorateur/rice Habitué
Adorateur/rice Habitué
Messages : 1792

Infos suplémentaires
Instrument Favori:
Album préféré: Alice & June
Connaît Indochine depuis: 3 ans
http://myspace.com/morphine59

Re: Pink Water II et III (Studio)

le 20/2/2011, 21:22
Tes capacités d'analyse sont impressionnantes Surprised
avatar
HumanProject
Administrateur
Administrateur
Messages : 4333

Infos suplémentaires
Instrument Favori: Batterie
Album préféré: Dancetaria
Connaît Indochine depuis: Wax, 1996
http://twelvemonkeysonthemoon.wordpress.com/

Re: Pink Water II et III (Studio)

le 20/2/2011, 21:32
Merci Smile
Mais c'est du surtout à l'habitude mg
Invité
Invité

Re: Pink Water II et III (Studio)

le 21/2/2011, 08:31
compresseur en "hard knee" Tu peux m'éclairer sur le therme hard knee? merci
avatar
HumanProject
Administrateur
Administrateur
Messages : 4333

Infos suplémentaires
Instrument Favori: Batterie
Album préféré: Dancetaria
Connaît Indochine depuis: Wax, 1996
http://twelvemonkeysonthemoon.wordpress.com/

Re: Pink Water II et III (Studio)

le 21/2/2011, 09:40
compresseur en hard knee veut dire compresseur à coupure forte ;
A la base, tu as un ratio élevé qui donne l'attaque claquante ;
En gros, tu obtiens ça au niveau du graphe du compresseur :


Ton ratio doit être d'au moins 6:1 pour avoir une bonne attaque.

Et tu rajoutes le hard knee, c'est simplement au niveau de la cassure de la courbe ; au lieu d'être douce (soft knee), elle va couper directement la source supérieure au ratio :



Voilou Wink

Indo est fana de ce genre de compresseurs sur les pianos, surtout depuis l'arrivée d'Oli ;
On retrouve la même chose sur le grand secret, le dernier jour etc etc
avatar
Ulysse
Adorateur/rice Habitué
Adorateur/rice Habitué
Messages : 1792

Infos suplémentaires
Instrument Favori:
Album préféré: Alice & June
Connaît Indochine depuis: 3 ans
http://myspace.com/morphine59

Re: Pink Water II et III (Studio)

le 21/2/2011, 10:00
Merci pour tes explications (enfin je connaissais à peu près, mais quand même 👅 )
avatar
indo-rouen-09
Novice Lvl. 3
Novice Lvl. 3
Messages : 62

Infos suplémentaires
Instrument Favori:
Album préféré: Dancetaria
Connaît Indochine depuis: paradise

Re: Pink Water II et III (Studio)

le 19/6/2011, 13:59
j'ai trouver sa:
Code:

|--------------------------------------------------------------------------------|
|-------------------------------------------------------------------5-------------------|
|-6-6-6-6-6-6-6-6----------------------3-3-3-3-3-3-3-3-3----3-3-3-3-3-3-3-|
|----------------------4-4-4-4-4-4-4-4-------------------------------------------|

je sais pas c'est quelle instru qui joue sa Suspect si quelqu'un trouve !!!

et j'ai bientot fini de trouve la partie piano Smile


Dernière édition par indo-rouen-09 le 2/9/2011, 11:44, édité 1 fois
avatar
arno173
Novice Lvl. 2
Novice Lvl. 2
Messages : 35

Infos suplémentaires
Instrument Favori:
Album préféré: Paradize
Connaît Indochine depuis: 2001

Re: Pink Water II et III (Studio)

le 2/7/2011, 13:40
Je pense avoir trouvé les 2 arpèges joués à la guitare:

CAPO 1

le premier avant le refrain (tablé avec le capo, un 2 par exemple est donc joué à la 3 case):

Code:
----------------------------------------------
----------------------------------------------
----------------------------------------------
--------2-5-4--------2-5-4-4-5-4--2-4-2-4-4---
-0-2-4--------0-2-4--------------2------------
----------------------------------------------

Le second après le 2ème refrain, pendant que Brian Molko chante (get me out...):

Code:
--------------------------------------
--------------------------------------
--------------------------------------
-5-5-5-4---4-4-5-7-4-4-4-5-4----------
---------5-------------------5-5-7----
--------------------------------------
Contenu sponsorisé

Re: Pink Water II et III (Studio)

Voir le sujet précédentRevenir en hautVoir le sujet suivant
Permission de ce forum:
Vous ne pouvez pas répondre aux sujets dans ce forum