Partagez
Voir le sujet précédentAller en basVoir le sujet suivant
élodi
Posteur Acharné
Posteur Acharné
Messages : 479

Leïla

le 7/9/2007, 16:56
Code:
Am  G  F  C
 
Am  G  F  C
 
1:--8--7--5-----3--------------8--7--5-----3------------
2:-----------5-----5--3--5--2-----------5-----5--3--5--2
 

Am                    G
Voici l'histoire de Leila
F                              C
Qui s'est passée très loin là-bas
Am                              G
Dans le désert des neiges nordiques
F                            C
Fût laissée tomber de ses parents
Am                        G
Recueillie par Jampo le lapon
F                          C
Elle grandit tout auprès de lui
Am                        G
Recueillie par Jampo le lapon
F                          C
Elle grandit tout auprès de lui
 
 
3:-----5-----2-----0--2--5--2--2--7--
4:--5-----5-----2--------------------
 
 
C                      Em
Et je la veux dans mes bras
F                        D
Dans un décor très très froid
C                Em
Une lapone en pulkas
F                      D
Qui se glisse dans les bois
C                  Em
Elle est à toi, Leila
F                        D
Cette fille au charme délicat
 
 
1:--8--7--5-----3--------------8--7--5-----3------------
2:-----------5-----5--3--5--2-----------5-----5--3--5--2
 
 
Dans les montagnes glacées de neige
Il lui apprit la vie de lapon
La plus belle fille de la région
C'était les seize ans de Leila
Alors Jampo se décida
Lui présenta un beau lapon
Mais elle ne voulut pas de lui
Se santant trop jeune à la vie
 
 
3:-----5-----2-----0--2--5--2--2--7--
4:--5-----5-----2--------------------
 
 
Et je la veux dans mes bras
Dans un décors très très froid
Une lapone en pulkas
Qui se glisse dans les bois
Elle est à toi, Leila
Cette fille au charme délicat
 
 
Am  G  F  C
 
Am  G  F  C
 
1:--8--7--5-----3--------------8--7--5-----3------------
2:-----------5-----5--3--5--2-----------5-----5--3--5--2
 
 
1:--8--7--5-----3--------------8--7--5-----3------------
2:-----------5-----5--3--5--2-----------5-----5--3--5--2
 
 
Dans son canöe descendit
Tous les rapides du pays
Sans se soucier de tous les dangers
Devient lapone émancipée
Sans se soucier du qu'en dira-t-on
Devient la reine de tous les lapons
Et c'est ainsi que Leila
Fût la légende d'un pays très froid
 
 
3:-----5-----2-----0--2--5--2--2--7--
4:--5-----5-----2--------------------
 
 
Et je la veux dans mes bras
Dans un décors très très froid
Une lapone en pulkas
Qui se glisse dans les bois
Elle est à toi, Leila
Cette fille au charme délicat
Elle est à toi, Leila
Cette fille au charme délicat
 
 
1:--8--7--5-----3--------------8--7--5-----3------------
2:-----------5-----5--3--5--2-----------5-----5--3--5--2
 
 
1:--8--7--5-----3--------------8--7--5-----3------------
2:-----------5-----5--3--5--2-----------5-----5--3--5--2
nadawieb83
Novice Lvl. 2
Novice Lvl. 2
Messages : 36

Infos suplémentaires
Instrument Favori:
Album préféré: Alice & June
Connaît Indochine depuis: Non définit

Re: Leïla

le 23/9/2007, 17:20
pour le pré-refrain je joue plutôt ca : 1: 5 - 8 - 3 - 5 - 0 - 3 - 5 - 8 - 5 - 10
avatar
Oli_Fan_De-Sat
Novice Lvl. 1
Novice Lvl. 1
Messages : 16

Infos suplémentaires
Instrument Favori:
Album préféré: Dancetaria
Connaît Indochine depuis: Non définit

Re: Leïla

le 20/1/2008, 16:28
Salut
Moi je trouve qu'il y a un seul truc ki va pas :
1:--8--7--5-----3--------------8--7--5-----3------------
2:-----------5-----5--3--5--2-----------5-----5--3--5--2

Je pense que ce petit solo (^^) devrait se finir pas par 2 mais par 1:
1:--8--7--5-----3--------------8--7--5-----3------------
2:-----------5-----5--3--5--1-----------5-----5--3--5--1
avatar
bobmo
Posteur Débutant
Posteur Débutant
Messages : 110

Infos suplémentaires
Instrument Favori:
Album préféré: Un jour dans notre vie
Connaît Indochine depuis: tout petit
http://www.myspace.com/bobmoorane

Re: Leïla

le 9/9/2008, 00:28
Je suis en train de faire une tablature de leila sur guitar pro, bon là je la fait pour la reprendre avec mon futur groupe, elle change de l'original, puis j'en ferais une de l'original, et je vous la filerais si vous souhaitez
avatar
Indofan
Novice Lvl. 2
Novice Lvl. 2
Messages : 40

Re: Leïla

le 23/1/2010, 18:51
Pareil qu'Oli, le riff se termine par un do:

1:--8--7--5-----3--------------8--7--5-----3------------
2:-----------5-----5--3--5--1-----------5-----5--3--5--1
avatar
Krakatoa
Posteur Acharné
Posteur Acharné
Messages : 302

Infos suplémentaires
Instrument Favori:
Album préféré: Hanoï
Connaît Indochine depuis: assez longtemps

Re: Leïla

le 13/5/2010, 11:06
Structure basique de Leila: Smile

Guitare rythmique + basse + boite a rythme:

Code:
E:----5-------5-------3-------3-------10------10------8-------8---
B:----5-------5-------3-------3-------10------10------8-------8---
G:----5-------5-------4-------4-------10------10------9-------9---
D:----7-------7-------5-------5-------12------12------10------10--
A:----7-------7-------5-------5-------12------12------10------10--
E:----5-------5-------3-------3-------10------10------8-------8---
......|.......|.......|.......|.......|.......|.......|.......|...
G:2-2-2-2-2-2-2-2-0-0-0-0-0-0-0-0-----|-------|-------|-------|---
D:--------------------------------3-3-3-3-3-3-3-3-----|-------|---
A:------------------------------------------------3-3-3-3-3-3-3-3-
E:----------------------------------------------------------------

 |x-x-x-x-x-x-x-x-x-x-x-x-x-x-x-x-x-x-x-x-x-x-x-x-x-x-x-x-x-x-x-x-|
 |----------------------------------------------------------------|
 |----x-------x-------x-------x-------x-------x-------x-------x---|
 |x-----x-x-----x-x-----x-x-----x-x-----x-x-----x-x-----x-x-----x-|

Pour la boite a rythme en haut c'est le Charleston, au milieu la caisse claire et en bas la grosse caisse.

Remarque:

Le troisieme accord de guitare n'est pas F mais bel et bien Dm, bien que Leila se jouât Am G F C, la guitare c'est Am G Dm C

D'abord c'est la boite a rythme solo 1x, puis tout l'ensemble 2x pour l'intro, ensuite on ajoute les synthetiseurs par dessus.

Code:
En l'occurence le riff d'intro (avec basse ATTENTION a la basse)

E:8---7---5~--------------3---------------------------------------
B:--------------------5-------5---3---5---1~----------------------
G:----------------------------------------------------------------
D:----------------------------------------------------------------
A:----------------------------------------------------------------
E:----------------------------------------------------------------

G:--------2-2-2-2-2-2-2-2-0-0-0-0-0-0-0-0-------------------------
D:----------------------------------------3-3-3-3-3-3-3-3---------
A:3-3-3-3-------------------------------------------------3-3-3-3-
E:----------------------------------------------------------------

Code:
Et le riff couplet: (avec basse)

E:----------------------------------------------------------------
B:--------------------------------1_______________________________
G:2_______________0_______________--------------------------------
D:----------------------------------------------------------------
A:----------------------------------------------------------------
E:----------------------------------------------------------------

G:2-2-2-2-2-2-2-2-0-0-0-0-0-0-0-0---------------------------------
D:--------------------------------3-3-3-3-3-3-3-3-----------------
A:------------------------------------------------3-3-3-3-3-3-3-3-
E:----------------------------------------------------------------

La suite, plus tard! Smile
avatar
Krakatoa
Posteur Acharné
Posteur Acharné
Messages : 302

Infos suplémentaires
Instrument Favori:
Album préféré: Hanoï
Connaît Indochine depuis: assez longtemps

Re: Leïla

le 16/5/2010, 06:22
Voilà un petit extrait en progressif d'un couplet de Leila avec les différentes pistes d'instruments juste pour donner une petite idée: Smile


Contenu sponsorisé

Re: Leïla

Voir le sujet précédentRevenir en hautVoir le sujet suivant
Permission de ce forum:
Vous ne pouvez pas répondre aux sujets dans ce forum