Partagez
Voir le sujet précédentAller en basVoir le sujet suivant
élodi
Posteur Acharné
Posteur Acharné
Messages : 479

A l'Est de Java

le 7/9/2007, 16:42
Code:

Am              D          Em        C
L'escadrille survole l'île de Krakatoa
Am          D    Em        C
Tout finira ici à l'est de Java
Am              D        Em        C
Une première mission, bombarder la ville
Am            D      Em      C
L'opération terrible de la routine
Am          D      Em                C
Il n'y aura pas... Il n'y aura pas de survivant
Am      D      Em              C
Que la fumée... Que la fumée sur le volcan

G
Trois mauvais garcons
  F    C  G  C
Au goût de l'action
G
Trois filles dans la lune
    F      C  G  C
Qui dansent sur les dunes
G
Pour la dernière fois
  F    C  G  C
A L'Est De Java

Les filles sur la plage ne font pas attention
Aux premieres sirènes que font tous les avions
Les pilotes en ordre attaquent sans pitié
C'est dans les flammes qu'ils vont tout exploser
De tous côtés...
De tous côtés, c'est la bataille
Pas de quartier...
Pas de quartier pour les canailles

Trois mauvais garcons
Au goût de l'action
Trois filles dans la lune
Qui dansent sur les dunes
Pour la dernière fois
A L'Est De Java

Les chasseurs mitraillent sur tout ce qui bouge
Les femmes et les enfants laisseront le sable rouge
Et quand les trois filles ouvriront leurs grands yeux
Il sera trop tard car toute l'île est en feu
Les trois garcons...
Les trois garcons les oublieront
Et les trois filles...
Et les trois filles y échapperont
avatar
nico84nv
Administrateur
Administrateur
Messages : 6021

Infos suplémentaires
Instrument Favori:
Album préféré: Nuits intimes
Connaît Indochine depuis: 2001
http://nico84nv.wordpress.com/

Re: A l'Est de Java

le 7/9/2007, 17:01
Eh ! On veut des vidéos hein Smile :bounce:
Merci en tout cas Wink

_________________


~ WordPress ~ MySpace ~
élodi
Posteur Acharné
Posteur Acharné
Messages : 479

Re: A l'Est de Java

le 7/9/2007, 17:38
Ah?
Toujours pris sur abc-tabs, il faudrait qu'on arrive à avoir toutes les tabs à disposition Wink
Sirkissing my song
Posteur Acharné
Posteur Acharné
Messages : 306

Infos suplémentaires
Instrument Favori:
Album préféré: Dancetaria
Connaît Indochine depuis: période Paradize

Re: A l'Est de Java

le 4/1/2008, 10:35
je joue la guitare mélodique comme ça (retrouvé plus ou moins à l'oreille, je l'avais déjà vu quelque part et je savais qu'un capo4 était utile)

Code:

Capo4
I---------I---------I---------I---------I
I---------I---------I---------I---------I
I---------I---------I---------I-----0---I
I-----2---I-----2---I---0-4-0-I---0---0-I
I---2---2-I-0-4---4-I-2-------I-2-------I
I-0-------I---------I---------I---------I
Mr Paramount
Posteur Expert
Posteur Expert
Messages : 790

Infos suplémentaires
Instrument Favori:
Album préféré: Dancetaria
Connaît Indochine depuis: 2003

Re: A l'Est de Java

le 4/1/2008, 11:52
ça c'est la version "facile" Wink , la vrai version c'est ça :


(à jouer avec un capo 4)

par contre c'est très chaud à jouer Rolling Eyes Sad , donc ton truc est pas plus mal... :mrgreen:
ce que t'as mis c'est en fait les trois premiéres notes de chaque mesure (du couplet), celles qu'on entend le plus
(les trois dernières doivent être jouée moins fort que les pemières)

scratch je sait pas si j'ai été très clair... :|
Mr Paramount
Posteur Expert
Posteur Expert
Messages : 790

Infos suplémentaires
Instrument Favori:
Album préféré: Dancetaria
Connaît Indochine depuis: 2003

Re: A l'Est de Java

le 4/1/2008, 12:02
j'ai fait des samples pour donner une idée du rythme, parceque c'est ça qu'est chaud à touver:

couplet : http://www.mediafire.com/?4ozy9zmjgjt

pont : http://www.mediafire.com/?9omlmdnyvdg

fin : http://www.mediafire.com/?bm2ydkmsfj1 (c'est celui là le plus dur, j'avoue j'ai du l'accélérer pour qu'il soit dans le bon tempo... Wink )
Sirkissing my song
Posteur Acharné
Posteur Acharné
Messages : 306

Infos suplémentaires
Instrument Favori:
Album préféré: Dancetaria
Connaît Indochine depuis: période Paradize

Re: A l'Est de Java

le 4/1/2008, 12:17
Evil or Very Mad grrr moi qui étais content de ma version "facile"... Laughing bref pour les nuls un peu moins bons comme moi je trouve qu'elle rend très bien Razz pi comme nicola il chante par dessus on entend pas les notes qui vont vite Smile
Mr Paramount
Posteur Expert
Posteur Expert
Messages : 790

Infos suplémentaires
Instrument Favori:
Album préféré: Dancetaria
Connaît Indochine depuis: 2003

Re: A l'Est de Java

le 4/1/2008, 12:42
Sirkissing my song a écrit:Evil or Very Mad grrr moi qui étais content de ma version "facile"... Laughing bref pour les nuls un peu moins bons comme moi je trouve qu'elle rend très bien Razz pi comme nicola il chante par dessus on entend pas les notes qui vont vite Smile
lol desolé Embarassed , mais je suis d'accord que ta version sonne bien Wink
avatar
Krakatoa
Posteur Acharné
Posteur Acharné
Messages : 302

Infos suplémentaires
Instrument Favori:
Album préféré: Hanoï
Connaît Indochine depuis: assez longtemps

Re: A l'Est de Java

le 7/6/2010, 09:06
Mais dis, Mr Paramount, t'es certain que c'est la vraie version?... scratch Le couplet m'a l'air bien retranscrit, trop peut-etre :mrgreen: , mais je trouve qu'il sonne mieux une octave plus haut et qu'il est de fait beaucoup plus facile a jouer puisqu'il suffit seulement de faire les barrés d'accords correspondants puis de faire du picking avec les notes, comme ceci:

Code:
E:------4---------|------4---------|------6---------|------7---------|
B:----4-----4---4-|----6-----6---6-|----7-----7---7-|----------7---7-|
G:------------4---|6-----------6---|8-----------8---|----8-------8---|
D:6---------------|----------------|----------------|9---------------|
A:----------------|----------------|----------------|----------------|
E:----------------|----------------|----------------|----------------|

G:----------------|----------------|----------------|4-4-4-4-4-4-4-4-|
D:6-6-6-6-6-6-6-6-|----------------|----------------|----------------|
A:----------------|4-4-4-4-4-4-4-4-|6-6-6-6-6-6-6-6-|----------------|
E:----------------|----------------|----------------|----------------|

Sinon, moi aussi j'avais ma version pour les nuls "facile" Sleep :

Code:

Les notes entre parentheses sont des syncopes facultatives

E:----------------|----------------|------6---------|------7---------|
B:------9---------|------9-----7---|------------7---|------------7---|
G:8--(8)------8---|6--(6)----------|8--(8)----------|8--(8)----------|
D:----------------|----------------|----------------|----------------|
A:----------------|----------------|----------------|----------------|
E:----------------|----------------|----------------|----------------|

G:----------------|----------------|----------------|4-4-4-4-4-4-4-4-|
D:6-6-6-6-6-6-6-6-|----------------|----------------|----------------|
A:----------------|4-4-4-4-4-4-4-4-|6-6-6-6-6-6-6-6-|----------------|
E:----------------|----------------|----------------|----------------|

Et pour revenir a la partition, c'est de Guitar Pro non? Question Ou c'est Ze Official Tab? nan nan ca m'interesse Smile
Y a aussi le riff du pont qui me laisse un peut perplexe. Pourtant il est tres fun a jouer, tout est dans le glisssssé aérien. Je ferais plutot un truc du genre (la basse change aussi):

Code:
partie 1

E:----------------|----------------|----------------|----------------|
B:----------------|----------------|----------------|----------------|
G:------1---------|------3---------|------1---------|------4---------|
D:1--(1)------1-/-|4--(4)------4---|3--(3)------1-/-|4--(4)----4-3(4)|
A:----------------|----------------|----------------|----------------|
E:----------------|----------------|----------------|----------------|

G:----------------|----------------|----------------|4-4-4-4-4-4-4-4-|
D:6-6-6-6-6-6-6-6-|----------------|----------------|----------------|
A:----------------|6-6-6-6-6-6-6-6-|4-4-4-4-4-4-4-4-|----------------|
E:----------------|----------------|----------------|----------------|

partie 2

E:----------------|----------------|----------------|----------------|
B:----------------|----------------|----------------|----------------|
G:------1---------|------3---------|------1---------|----------------|
D:1--(1)------1-/-|4--(4)------4---|3--(3)-----(1)/-|4~~-------------|
A:----------------|----------------|----------------|----------------|
E:----------------|----------------|----------------|----------------|

G:----------------|----------------|----------------|4-4-4-4-4-4-4-4-|
D:6-6-6-6-6-6-6-6-|----------------|----------------|----------------|
A:----------------|6-6-6-6-6-6-6-6-|4-4-4-4-4-4-4-4-|----------------|
E:----------------|----------------|----------------|----------------|
Mr Paramount
Posteur Expert
Posteur Expert
Messages : 790

Infos suplémentaires
Instrument Favori:
Album préféré: Dancetaria
Connaît Indochine depuis: 2003

Re: A l'Est de Java

le 9/6/2010, 17:54
tu tombes bien justement je passais ici (ça fait un baïl).
Ma tablature n'a rien d'officiel évidement, et ta façon de jouer marche aussi!
J'ai retranscris du songbook, donc c'est l'octave qui était indiqué. Mais c'est un peu plus facile a jouer de ta façon (et puis pas besoin de capo)
avatar
Krakatoa
Posteur Acharné
Posteur Acharné
Messages : 302

Infos suplémentaires
Instrument Favori:
Album préféré: Hanoï
Connaît Indochine depuis: assez longtemps

Re: A l'Est de Java

le 9/7/2010, 11:28
Hey Mr Paramount! Smile Ben si t'a retranscris du songbook, c'est que ce doit être officiel, étant donné qu'il n'y a pas 50 versions de À l'est de Java, studio et zénith sont plutôt similaires et Nuits Intimes n'a pas ce picking...

Bref, sinon y a la partie guitare rythmique, qu'on entend moins, mais qui a du inspirer le riff d'intro du Zénith: scratch

Je dirais que ça fait un trip plutôt comme ça:

Code:
E:----------------|----------------|----------------|----------------|
B:4---4---4-4---4-|6-4-6---6-6---6-|7---7---7-7---7-|--7-7---7-7-----|
G:4---4---4-4---4-|6-6-6---6-6---6-|8-8-8---8-8---8-|8-8-8---8-8---8-|
D:6---6---6-6---6-|6-6-6---6-6---6-|8-8-8---8-8---8-|9-9-9---9-9---9-|
A:6---6---6-6---6-|4-4-4---4-4---4-|----------------|9-9-9---9-9---9-|
E:4---4---4-4---4-|----------------|----------------|7-7-7---7-7---7-|

G:----------------|----------------|----------------|4-4-4-4-4-4-4-4-|
D:6-6-6-6-6-6-6-6-|----------------|----------------|----------------|
A:----------------|4-4-4-4-4-4-4-4-|6-6-6-6-6-6-6-6-|----------------|
E:----------------|----------------|----------------|----------------|

rythme audio global (bon c'est joué beaucoup plus bas niveau volume)


Smile
Contenu sponsorisé

Re: A l'Est de Java

Voir le sujet précédentRevenir en hautVoir le sujet suivant
Permission de ce forum:
Vous ne pouvez pas répondre aux sujets dans ce forum