Partagez
Voir le sujet précédentAller en basVoir le sujet suivant
avatar
Sam
Administrateur
Administrateur
Messages : 2964

Infos suplémentaires
Instrument Favori: Autre
Album préféré: Nuits intimes
Connaît Indochine depuis: 2002
http://goossy.cowblog.fr

06 - Wuppertal

le 8/2/2013, 12:43
Progression d'accords:

intro et couplet: Gm D# Gm A#

refrain: Cm D# Cm D# A# A# A# A#

couplet: Gm D# Gm A#

pont: F D# G F D# D# D# D#

refrain et final: Cm D# Cm D# A# A# A# A#


capo 3:
couplets: Em C Em G

refrains: Am C Am C G G G G

pont: D C A D C C C C


En capo3 ça va, c'est pas violent Smile

_________________
avatar
indoness
Novice Lvl. 2
Novice Lvl. 2
Messages : 33

Infos suplémentaires
Instrument Favori: Guitare
Album préféré: Dancetaria
Connaît Indochine depuis: 2001
http://www.myspace.fr/bikingrabbits

Re: 06 - Wuppertal

le 28/2/2013, 10:49
Salut !
Quelqu'un a réussi à "décortiquer" l'arpège ?Je n'arrive pas à bien distinguer les hammer-on et pull-off sur celle là.
avatar
Sam
Administrateur
Administrateur
Messages : 2964

Infos suplémentaires
Instrument Favori: Autre
Album préféré: Nuits intimes
Connaît Indochine depuis: 2002
http://goossy.cowblog.fr

Re: 06 - Wuppertal

le 4/3/2013, 14:26
Voilà un .wav qui contient juste le riff et qui se boucle plutôt bien en repeat.

mediafire.com ?2azg6tvku36ysqy

Ensuite pour le riff en lui même, faut rester en position du Gm, barré en case 3 donc.

Perso j'ai trouvé ça:
Code:

E-|-3----------------------3-----------------------
A-|--5----------------------5----------------------
D-|---5--------5-5p3---------5----------3---3----
G-|----3h5-p3---3----------------3h5-p3---3-----
B-|-
e-|-

Je ne sais même plus comment on note les hammer-on et pull-off alors j'espère que ce sera compréhensible. Et j'suis pas non plus sûr à 100%, le 5p3 sur la corde D ressemble plus à un slide qu'à un pull-off à l'écoute d'ailleurs.

Edit: oups je ne sais plus tabber, j'ai inversé le sens des cordes No

Code:

e-|----------------------------------------------------------
B-|----------------------------------------------------------
G-|------3h5-p3-------3------------------3h5-p3-------3------
D-|---5------------5-----5p3-----------5------------3----3---
A-|--5--------------------------------5----------------------
E-|-3-------------------------------3------------------------

_________________
Contenu sponsorisé

Re: 06 - Wuppertal

Voir le sujet précédentRevenir en hautVoir le sujet suivant
Permission de ce forum:
Vous ne pouvez pas répondre aux sujets dans ce forum