Partagez
Voir le sujet précédentAller en basVoir le sujet suivant
avatar
Sam
Administrateur
Administrateur
Messages : 2948

Infos suplémentaires
Instrument Favori: Autre
Album préféré: Nuits intimes
Connaît Indochine depuis: 2002
http://goossy.cowblog.fr

05 - Le fond de l'air est rouge

le 8/2/2013, 12:12
Progression d'accords:

intro: B5 F#5 C#5 E5

couplet: B F# C#m E (ou Bm F#m C#m E ? vu comment c'est dans la suite du morceau je dirais que c'est du majeur)

pré refrain: D A F#m E

refrain D A F# E

couplet: B F# C#m E

pré refrain: D A F#m E

refrain et final: D A F# E


capo 2 (1 barré):

intro: A5 E5 B5 D5

couplets: A E Bm D

pré refrains: C G Em D

refrains: C G E D


Dernière édition par Sam le 8/2/2013, 22:46, édité 1 fois

_________________
avatar
Thomas
Modérateur LittlePonette
Modérateur LittlePonette
Messages : 2771

Infos suplémentaires
Instrument Favori: Guitare
Album préféré: 7000 danses
Connaît Indochine depuis: 2005 - Savoure le rouge

Re: 05 - Le fond de l'air est rouge

le 8/2/2013, 12:38
moi je la boude cette chanson.

_________________
Moi, j'utilise ça =)
june320
Novice Lvl. 1
Novice Lvl. 1
Messages : 3

Re: 05 - Le fond de l'air est rouge

le 25/2/2013, 17:30
Voilà une proposition de tab pour le fond de l'air est rouge à l'oreille Smile

Intro (mute)
E -----------------------------------
B -----------------------------------
G -----------------------------------
D --------4-(x8)--------2-(x8)-------
A –2-(x8)--------4-(x8)--------------
E -----------------------------------

Powerchords
B-B F#-F# C#-C# Em-Em

Riff
E ------------------------------------
B ------------------------------------
G ------------------------------------
D ------4------------------2----------
A –2-5----5-4------------4---4-2~-----
E ------------2-(2)----4--------------

Chords refrain
E -----------------------
B -----------------------
G --11---9--------9------ (F5 – Em – F5 – Em)ou(D5 – A5 – F5 – Em)
D --11---9----4---9------
A –-9----7----4---7------
E ------------2----------

solo
E -------------------------------------
B --4--4-4--7----4-4-7-7---------------
G ------------6--------------4-4--6---- x2
D -----------------------6-6-----------
A –------------------------------------
E -------------------------------------

E ------4----------4-----------4-6-4---------
B --4-7--7-7---4-7---7-7---4-7-------7-4-7---
G -------------------------------------------
D -------------------------------------------
A –------------------------------------------
E -------------------------------------------

solo 2
E ---------------------------------------------
B --7--5--5-----------5--5---------------------
G ------6--6--7--4-6---6-------------6-7--6----
D --------------------------6-7--6-7-------7---
A –--------------------------------------------
E ---------------------------------------------
avatar
Sam
Administrateur
Administrateur
Messages : 2948

Infos suplémentaires
Instrument Favori: Autre
Album préféré: Nuits intimes
Connaît Indochine depuis: 2002
http://goossy.cowblog.fr

Re: 05 - Le fond de l'air est rouge

le 25/2/2013, 18:25
june320 a écrit:Powerchords
B-B F#-F# C#-C# Em-Em
Attention, Em n'est pas un powerchord Wink

_________________
june320
Novice Lvl. 1
Novice Lvl. 1
Messages : 3

Re: 05 - Le fond de l'air est rouge

le 16/3/2013, 09:42
Oui oui effectivement Embarassed en plus j'ai capté mais oubli de ma part : c'est tous bien des F# il n'y a aucun F
Contenu sponsorisé

Re: 05 - Le fond de l'air est rouge

Voir le sujet précédentRevenir en hautVoir le sujet suivant
Permission de ce forum:
Vous ne pouvez pas répondre aux sujets dans ce forum