Partagez
Voir le sujet précédentAller en basVoir le sujet suivant
avatar
Sam
Administrateur
Administrateur
Messages : 2948

Infos suplémentaires
Instrument Favori: Autre
Album préféré: Nuits intimes
Connaît Indochine depuis: 2002
http://goossy.cowblog.fr

03 - College Boy

le 8/2/2013, 10:37
Progression d'accords:

A#m C# F# D#m
tout du long

Degrés: 6 1 4 2

Capo 1 (1 barré): Am C F Dm

Capo 6 (sans barré): Em G C Am

Exemple de battement à la guitare: b b b bh hb bh bh
En accentuant les battements en gras.

Bref c'est donc un morceau plutôt simple à jouer pour peu qu'on possède un capo. Autrement ce n'est que du barré.

_________________
avatar
indoness
Novice Lvl. 2
Novice Lvl. 2
Messages : 32

Infos suplémentaires
Instrument Favori: Guitare
Album préféré: Dancetaria
Connaît Indochine depuis: 2001
http://www.myspace.fr/bikingrabbits

Re: 03 - College Boy

le 10/2/2013, 19:53
Salut !
Voilà ce que j'ai trouvé pour le petit riff aigu (ne faite pas attention au tempo à 120 BPM) :
Sans capo :


Avec le capo en première case :



Et pour l'autre riff (par contre je suis moins sur pour celui là) :
Sans capo :


Et avec une autre position plus difficile, si vous le jouez avec un capo en première case transposez le d'un demi ton en dessous bien sur :


Désolé pour les petits curseurs jaune inesthétique sur les captures !
avatar
Thomas
Modérateur LittlePonette
Modérateur LittlePonette
Messages : 2771

Infos suplémentaires
Instrument Favori: Guitare
Album préféré: 7000 danses
Connaît Indochine depuis: 2005 - Savoure le rouge

Re: 03 - College Boy

le 10/2/2013, 22:39
Il me manque, guitar pro 5... J'ai acheté le 6 et je regrette, il est à chier.

_________________
Moi, j'utilise ça =)
avatar
Boris-GuitarHero
Posteur Débutant
Posteur Débutant
Messages : 122

Infos suplémentaires
Instrument Favori: Guitare
Album préféré: La République des Meteors
Connaît Indochine depuis: 2002

Re: 03 - College Boy

le 17/3/2013, 20:36
Thomas a écrit:Il me manque, guitar pro 5... J'ai acheté le 6 et je regrette, il est à chier.

J'ai le 5 mais il me lit peu de trucs désormais :/
Le 6 mon frère l'a, c'est vrai il a l'air bof..
avatar
Thomas
Modérateur LittlePonette
Modérateur LittlePonette
Messages : 2771

Infos suplémentaires
Instrument Favori: Guitare
Album préféré: 7000 danses
Connaît Indochine depuis: 2005 - Savoure le rouge

Re: 03 - College Boy

le 18/3/2013, 03:10
J'ai jamais utilisé guitar pro pour lire des tabs, mais je l'ai utilisé pour composer pendant des années. J'ai jamais utilisé gp6 pour ça par contre, il est absolument pourri. J'écris plus de tablatures, du coup, je m'enregistre avec une webcam ou sur pro tools.

_________________
Moi, j'utilise ça =)
avatar
elise
Novice Lvl. 1
Novice Lvl. 1
Messages : 16

Infos suplémentaires
Instrument Favori: Chant
Album préféré: Dancetaria
Connaît Indochine depuis: 2000

Re: 03 - College Boy

le 28/3/2013, 20:33
Quelqu'un a trouvé le riff de fin?
avatar
Thomas
Modérateur LittlePonette
Modérateur LittlePonette
Messages : 2771

Infos suplémentaires
Instrument Favori: Guitare
Album préféré: 7000 danses
Connaît Indochine depuis: 2005 - Savoure le rouge

Re: 03 - College Boy

le 29/3/2013, 03:35
Tiens, ça ressemble à ça
--------------------------------------------------------------------
-/11----/11-------------------------------------------------------
-----10------10-------11-13--11-10----------------------------
----------------------------------------11-------------------------
--------------------------------------------------------------------
--------------------------------------------------------------------

j'ai pas mis de rythme, mais bon, ça s'entend facilement. Je pense pas que la guitare fasse plus de notes que ça, c'est les claviers qui sont par dessus qui ont l'air de prendre de la place, mais peut-être que le début est
------------------------------------------------
-/11----------------/11-----------------------
------10-9-10----------10-9-10------------
------------------------------------------------
------------------------------------------------
------------------------------------------------

_________________
Moi, j'utilise ça =)
avatar
elise
Novice Lvl. 1
Novice Lvl. 1
Messages : 16

Infos suplémentaires
Instrument Favori: Chant
Album préféré: Dancetaria
Connaît Indochine depuis: 2000

Re: 03 - College Boy

le 29/3/2013, 19:13

Merci bien !
garoulayo
Novice Lvl. 1
Novice Lvl. 1
Messages : 14

Re: 03 - College Boy

le 6/5/2013, 20:46
pour le riff apres i want too see you

--------------------------------------------------------------------
---------------------------------------7-----------7---------------
10---9---10-----10-10-9-10 ----------8--6--8----8--6---------
-------------------------------------------------------------8-----
--------------------------------------------------------------------
--------------------------------------------------------------------
avatar
indoness
Novice Lvl. 2
Novice Lvl. 2
Messages : 32

Infos suplémentaires
Instrument Favori: Guitare
Album préféré: Dancetaria
Connaît Indochine depuis: 2001
http://www.myspace.fr/bikingrabbits

Re: 03 - College Boy

le 23/10/2013, 16:41
Salut ! Je viens de trouver un arpège inspiré du remix d'Oli2Sat :
En capo 1
---0------------------|--0-------------------|------------0---------|
------------3---------|------------1---------|----------------------|
-------2---------2----|-------0---------0----|-------2---------2----|
----------------------|----------------------|--3-------------------|
---0------------------|--3-------------------|----------------------|
----------------------|----------------------|----------------------|



--1---------0---------
----------------------
-------2---------2----
--0-------------------
----------------------
----------------------
Contenu sponsorisé

Re: 03 - College Boy

Voir le sujet précédentRevenir en hautVoir le sujet suivant
Permission de ce forum:
Vous ne pouvez pas répondre aux sujets dans ce forum