Partagez
Voir le sujet précédentAller en basVoir le sujet suivant
avatar
indo-rouen-09
Novice Lvl. 3
Novice Lvl. 3
Messages : 62

Infos suplémentaires
Instrument Favori:
Album préféré: Dancetaria
Connaît Indochine depuis: paradise

intro aventurier 3.6.3

le 1/6/2011, 12:56
hello , je sais pa si je poste au bonne endroit mai je propose se que j'ai trouver pour l'intro de la basse:

Code:

|------------------------------------|
|------------------------------------|
|------------------------------------|
|----4--4--4--4--4--4--4--4-----| X9
|------------------------------------|

puis

Code:

|-----------------------------------------------------------------------------------------------------------------------|
|-----------------------------------------------------------------------------------------------------------------------|
|------------------------------------------------------------------------------------------4--4--4--4--4--4--4--4--|X10
|----4--4--4--4--4--4--4--4-------------------------------7--7--7--7--7--7--7--7------------------------------|
|---------------------------------5--5--5--5--5--5--5--5-----------------------------------------------------------|


voilat se que joue normalement la basse

j'espere que c'est bon
avatar
Thomas
Modérateur LittlePonette
Modérateur LittlePonette
Messages : 2771

Infos suplémentaires
Instrument Favori: Guitare
Album préféré: 7000 danses
Connaît Indochine depuis: 2005 - Savoure le rouge

Re: intro aventurier 3.6.3

le 1/6/2011, 14:05
j'ai pas d'instru dans la main, mais ça me semble bon =)
avatar
indo-rouen-09
Novice Lvl. 3
Novice Lvl. 3
Messages : 62

Infos suplémentaires
Instrument Favori:
Album préféré: Dancetaria
Connaît Indochine depuis: paradise

Re: intro aventurier 3.6.3

le 1/6/2011, 17:13
ba normalement c'est bon c'est un basiste qu'y m'a donner la tab mai faudrai que je reface la presentation
:twisted:
Invité
Invité

Re: intro aventurier 3.6.3

le 1/6/2011, 18:23
"J'ai pas d'instrument dans la main" tu parles de quoi thomas? mdr
Contenu sponsorisé

Re: intro aventurier 3.6.3

Voir le sujet précédentRevenir en hautVoir le sujet suivant
Permission de ce forum:
Vous ne pouvez pas répondre aux sujets dans ce forum