Partagez
Voir le sujet précédentAller en basVoir le sujet suivant
avatar
Sam
Administrateur
Administrateur
Messages : 2964

Infos suplémentaires
Instrument Favori: Autre
Album préféré: Nuits intimes
Connaît Indochine depuis: 2002
http://goossy.cowblog.fr

Razzia (studio)

le 20/5/2007, 14:16
gamme: G#m

accords: C#m G#m D#m F# E

Les accords de cette song ne sont pas super simple à distinguer mais.. voilà ce que j'en pense.

Intro: C#m G#m D#m F#

Couplet: C#m G#m D#m C#m

Refrain: C#m G#m D#m F#

Break: E C#m E C#m

Pont: E E E E, puis C#m G#m D#m F#

Final: E C#m E C#m, E

C'est que la composition des différentes parties, et non une structure complete du morceau.

Pour différentier les couplets et refrains, j'me suis basé sur la "basse" pour les accords.

_________________
avatar
Coxie
Administrateur
Administrateur
Messages : 2597

Infos suplémentaires
Instrument Favori:
Album préféré: Dancetaria
Connaît Indochine depuis: Paradize : j'ai connu cet album, 2004 : j'ai couru acheter le DVD du 3.6.3, 2004/2005 : grande passion ^^

Re: Razzia (studio)

le 20/5/2007, 16:40
enfin quelque chose dans la période Péril Jaune Laughing

_________________
Un clic chaque jour, de l'amour pour toujours

Quelque part dans ce monde, il y a cette personne rien que pour moi, qui m'aime parce que je suis moi...
avatar
nico84nv
Administrateur
Administrateur
Messages : 6021

Infos suplémentaires
Instrument Favori:
Album préféré: Nuits intimes
Connaît Indochine depuis: 2001
http://nico84nv.wordpress.com/

Re: Razzia (studio)

le 20/5/2007, 16:45
C'est pas ma préférée^^, mais en tout cas, pour travailler les barrés, elle a l'air pas mal Smile

_________________
avatar
Coxie
Administrateur
Administrateur
Messages : 2597

Infos suplémentaires
Instrument Favori:
Album préféré: Dancetaria
Connaît Indochine depuis: Paradize : j'ai connu cet album, 2004 : j'ai couru acheter le DVD du 3.6.3, 2004/2005 : grande passion ^^

Re: Razzia (studio)

le 20/5/2007, 17:01
nico84nv a écrit:mais en tout cas, pour travailler les barrés, elle a l'air pas mal Smile
génial -_-'

_________________
Un clic chaque jour, de l'amour pour toujours

Quelque part dans ce monde, il y a cette personne rien que pour moi, qui m'aime parce que je suis moi...
nadawieb83
Novice Lvl. 2
Novice Lvl. 2
Messages : 36

Infos suplémentaires
Instrument Favori:
Album préféré: Alice & June
Connaît Indochine depuis: Non définit

Re: Razzia (studio)

le 16/9/2007, 19:06
Quelqu'un aurait le pont a la guitare?
avatar
Sam
Administrateur
Administrateur
Messages : 2964

Infos suplémentaires
Instrument Favori: Autre
Album préféré: Nuits intimes
Connaît Indochine depuis: 2002
http://goossy.cowblog.fr

Re: Razzia (studio)

le 17/9/2007, 17:37
nadawieb83 a écrit:Quelqu'un aurait le pont a la guitare?
L'espèce d'arpège là ?

_________________
nadawieb83
Novice Lvl. 2
Novice Lvl. 2
Messages : 36

Infos suplémentaires
Instrument Favori:
Album préféré: Alice & June
Connaît Indochine depuis: Non définit

Re: Razzia (studio)

le 23/9/2007, 17:13
OUi voila
nadawieb83
Novice Lvl. 2
Novice Lvl. 2
Messages : 36

Infos suplémentaires
Instrument Favori:
Album préféré: Alice & June
Connaît Indochine depuis: Non définit

Re: Razzia (studio)

le 24/9/2007, 20:53
le petit riff d'intro joué au sinthé c'est :
Code:
e:------4(x8)------------------
b:--2(x8)---4(x6)-7-4----------
g:------------------------3(x8)


Dernière édition par le 25/9/2007, 16:40, édité 1 fois
avatar
nico84nv
Administrateur
Administrateur
Messages : 6021

Infos suplémentaires
Instrument Favori:
Album préféré: Nuits intimes
Connaît Indochine depuis: 2001
http://nico84nv.wordpress.com/

Re: Razzia (studio)

le 24/9/2007, 20:56
nadawieb83 a écrit:le petit riff d'intro joué au sinthé c'est :

e:------4(x8)------------------
b:--2(x Cool---4(x6)-7-4--------
g:------------------------3(x Cool-
Laughing Il a l'air cool à jouer Razz
Edit ton post et met le entre les balises [codes] Wink

_________________
nadawieb83
Novice Lvl. 2
Novice Lvl. 2
Messages : 36

Infos suplémentaires
Instrument Favori:
Album préféré: Alice & June
Connaît Indochine depuis: Non définit

Re: Razzia (studio)

le 25/9/2007, 17:04
bin moi je voyais pas les lunettes de soleil mais la ca le fait toujours ??? (j'ai pas compris les balises y avait trop de trucs)
avatar
Sam
Administrateur
Administrateur
Messages : 2964

Infos suplémentaires
Instrument Favori: Autre
Album préféré: Nuits intimes
Connaît Indochine depuis: 2002
http://goossy.cowblog.fr

Re: Razzia (studio)

le 25/9/2007, 17:39
Voilà j'ai édité Wink

_________________
avatar
nico84nv
Administrateur
Administrateur
Messages : 6021

Infos suplémentaires
Instrument Favori:
Album préféré: Nuits intimes
Connaît Indochine depuis: 2001
http://nico84nv.wordpress.com/

Re: Razzia (studio)

le 25/9/2007, 17:50
nadawieb83 a écrit:bin moi je voyais pas les lunettes de soleil mais la ca le fait toujours ??? (j'ai pas compris les balises y avait trop de trucs)
Nan c'est bon Wink Sam s'en et chargé Wink
Sinon, pour les balises, il te suffit de séléctionner ta tab entièrement, et de cliquer sur [code] quand tu ecris ton message, les balises se mettront elles-mêmes avant et après Wink

_________________
nadawieb83
Novice Lvl. 2
Novice Lvl. 2
Messages : 36

Infos suplémentaires
Instrument Favori:
Album préféré: Alice & June
Connaît Indochine depuis: Non définit

Re: Razzia (studio)

le 27/9/2007, 16:23
ah ! classe merci
avatar
Planete Indochine
Posteur Habitué
Posteur Habitué
Messages : 226

Infos suplémentaires
Instrument Favori:
Album préféré: Nuits intimes
Connaît Indochine depuis: 2000

Re: Razzia (studio)

le 15/5/2008, 13:20
nadawieb83 a écrit:le petit riff d'intro joué au sinthé c'est :
Code:
e:------4(x8)------------------
b:--2(x8)---4(x6)-7-4----------
g:------------------------3(x8)

par contre c'est plsu facile de choper la case 2 de la corde mi aigue plutot que la case 7 de la corde si !... Wink
élodi
Posteur Acharné
Posteur Acharné
Messages : 479

Re: Razzia (studio)

le 14/7/2009, 12:10
Voilà ce que je propose :

Couplets :
C#m G#m B F#

Refrain :
C#m E B G#m
avatar
Krakatoa
Posteur Acharné
Posteur Acharné
Messages : 302

Infos suplémentaires
Instrument Favori:
Album préféré: Hanoï
Connaît Indochine depuis: assez longtemps

Re: Razzia (studio)

le 7/4/2010, 13:38
Bonjour!
Il y a aussi un truc trop chelou qui se joue a la basse pendant les couplets, Shocked une espece d'arpege un peu sourde. Sans compter la petite transition refrain-couplets. Je vais essayer de la déchiffrer mais ca va etre chaud... Wink
avatar
Sam
Administrateur
Administrateur
Messages : 2964

Infos suplémentaires
Instrument Favori: Autre
Album préféré: Nuits intimes
Connaît Indochine depuis: 2002
http://goossy.cowblog.fr

Re: Razzia (studio)

le 7/4/2010, 18:11
Ah ouais, j'adore cet arpège de synth bass (je pense, à l'époque ça ne devait pas être une vraie basse ^^), ça a l'air d'être une montée/descente par accord... Mais j'adorerais voir un bassiste l'exécuter Smile

élodi a écrit:Voilà ce que je propose :

Couplets :
C#m G#m B F#

Refrain :
C#m E B G#m
Ah j'avais pas vérifié jusqu'à présent mais tu as raison, je suis d'accord sur tout sauf peut-être le G#m du refrain.. mais je peux me tromper.

Bref, bien joué élodi Wink

Edit:
A propos de la ligne de basse:



Plus ou moins facile à faire au synthé.. mais à la guitare / basse.. ouch

BPM 81

_________________
avatar
Krakatoa
Posteur Acharné
Posteur Acharné
Messages : 302

Infos suplémentaires
Instrument Favori:
Album préféré: Hanoï
Connaît Indochine depuis: assez longtemps

Re: Razzia (studio)

le 8/4/2010, 08:01
Shocked Impressionant, la chapeau bas! :drunken: Po possible, t'as un logiciel qui isole les pistes???? Au fait, comment fais-tu pour uploader et incorporer ces echantillons dans un message? Je vois rien dans la barre d'outil qui permet de le faire. Sous quel format sont tes musiques, mp3? WAV? Question
avatar
Sam
Administrateur
Administrateur
Messages : 2964

Infos suplémentaires
Instrument Favori: Autre
Album préféré: Nuits intimes
Connaît Indochine depuis: 2002
http://goossy.cowblog.fr

Re: Razzia (studio)

le 8/4/2010, 19:06
Merci Smile
Nan nan pas de logiciel comme ça. Et puis à part égaliser sur la fréquence voulu c'est assez "impossible" d'isoler complètement une piste.

Nan juste un peu d'oreille et pas mal de déduction/interpolation Smile
Enfin.. on entend l'arpège suffisament sur les 3 premiers accords, moins sur le dernier.. donc j'ai juste appliqué le même arpège sur le dernier accord, même si je l'entends beaucoup moins, au risque de me planter, mais peu importe tant que l'ensemble est cohérent Smile
Après je ne sais pas si le songbook indique ce niveau de détail pour vérifier...

Pour l'upload du sample créé sur fluity loops, c'est simplement une intégration HTML du player de ipernity, site "social" de partage (et lecture) de docs assez sympa http://www.ipernity.com/home/117497
J'ai même uploadé directement le .wav du sample, comme il est court, et ipernity l'a lui même encodé en ce qu'il veut (mp3 je suppose mais bon) pour être lu online.

Voilà voilà Smile

Et au fait, si tu veux te présenter.. http://indosound.mygoo.org/a-propos-du-forum-f21/presentation-t147-900.htm#27229

_________________
avatar
Krakatoa
Posteur Acharné
Posteur Acharné
Messages : 302

Infos suplémentaires
Instrument Favori:
Album préféré: Hanoï
Connaît Indochine depuis: assez longtemps

Re: Razzia (studio)

le 10/4/2010, 04:55
Merci Sam pour tes explications! Smile Bon, il va me falloir un peu de temps pour maitriser mais ca devrait aller!
Bravo encore pour la basse, surtout a l'oreille! Mais au fait, tu parlais du Songbook... Lequel??? T'as raison je doute carrément qu'il y en ai un qui soit aussi concis, jusqu'a donner une ligne de basse... D'habitude c'est juste piano/guitare/voix, et le strict necessaire... RIEN a voir avec les pistes d'origine Crying or Very sad

Wikipedia parle de ce recueil de partoches:

"Indochine, compilation L'Aventurier & Le Péril Jaune, Musicom distribution, 1986"

Mais alors j'en ai jamais trouvé la trace, ni sur le web, ni dans les magasins...
Peut-etre que toi tu as des docus d'origine... Mr Paramount a trouvé un truc assez exact sur "A l'est de Java"... Enfin bref
Oui il est grand temps que je me présente, désolé. Je me pointe et je balance mes trucs, ca fait pas tres sérieux Laughing
avatar
Krakatoa
Posteur Acharné
Posteur Acharné
Messages : 302

Infos suplémentaires
Instrument Favori:
Album préféré: Hanoï
Connaît Indochine depuis: assez longtemps

Re: Razzia (studio)

le 10/4/2010, 08:22
hey Sam, je viens de verifier pour l'arpege du dernier accord avec le MP3 Key Changer, il faut le monter une octave plus haut! Remarque: ce sont les memes accords que pour le refrain de l'Aventurier...
avatar
Sam
Administrateur
Administrateur
Messages : 2964

Infos suplémentaires
Instrument Favori: Autre
Album préféré: Nuits intimes
Connaît Indochine depuis: 2002
http://goossy.cowblog.fr

Re: Razzia (studio)

le 11/4/2010, 20:54
Je pensais au songbook intégral (aventurier à paradize), mais je ne l'ai eu que trop peu de temps en mains pour me rappeler de ça.

Et nan, j'ai pas de docs particuliers à part des scans de la partition de JDALL présente dans le songbook je suppose. Rien d'extraordinaire quoi.

Ah ok d'accord pour le dernier accord Wink
Et ouais, je me suis aussi fait la réflexion à propos de la même suite que l'avanturier Smile

_________________
avatar
Krakatoa
Posteur Acharné
Posteur Acharné
Messages : 302

Infos suplémentaires
Instrument Favori:
Album préféré: Hanoï
Connaît Indochine depuis: assez longtemps

Re: Razzia (studio)

le 12/4/2010, 09:33
Sam a écrit:Je pensais au songbook intégral (aventurier à paradize), mais je ne l'ai eu que trop peu de temps en mains pour me rappeler de ça.

Et nan, j'ai pas de docs particuliers à part des scans de la partition de JDALL présente dans le songbook je suppose. Rien d'extraordinaire quoi.

Oui, le bouquin rouge avec la jolie couverture? Le songbook intégral serait bien épais s'il y avait toutes les pistes Laughing J'imagine que c'est pour rester accessible a un max de personnes... Smile
JDALL t'a pas trop emballée la dessus? Bigre, j'imagine le reste, vu que c'est un morceau plutot simple en lui meme. J'ai jeté un coup d'oeil sur le IndoLive, mais je sais pas du tout si les chansons dedans ont été reprises pour l'Intégral. Et donc comme je disais c'est assez prévisible en effet au niveau de la partoche. Enfin je veux dire que c'est le genre de truc qui se joue sur Youtube (y'en a de tres réussies, cela-dit), "exact" mais pas forcément "jouable" a cru, en solo... Wink
avatar
Krakatoa
Posteur Acharné
Posteur Acharné
Messages : 302

Infos suplémentaires
Instrument Favori:
Album préféré: Hanoï
Connaît Indochine depuis: assez longtemps

Re: Razzia (studio)

le 25/2/2011, 08:49
Hello Indosound! cheers =)

Bon, je m'attaque aux riffs cette fois-ci

Riff de transition couplet-refrain

Code:
E:--------|--------|--------|--------|--------|--------|--------|--------|
B:--------|--------|--------|5-------|4-------|--------|--------|--------|
G:6-------|4-------|--------|--------|--------|4-------|--------|--------|
D:--------|--------|6-------|--------|--------|--------|6-------|4-------|   X3
A:--------|--------|--------|--------|--------|--------|--------|--------|
E:--------|--------|--------|--------|--------|--------|--------|--------|

suivi de:

E:--------|--------|--------|--------|--------|--------|--------|--------|
B:--------|--------|--------|5-------|4-------|--------|--------|--------|
G:6-------|4-------|--------|--------|--------|4-------|--------|4-------|   X1
D:--------|--------|6-------|--------|--------|--------|6-------|--------|
A:--------|--------|--------|--------|--------|--------|--------|--------|
E:--------|--------|--------|--------|--------|--------|--------|--------|

Le petit synthé joue ça:

E:9-9-9-9-|9-9-9-9-|--------|--------|11-11-11-11-|11-11-11-11-|11-11-11-11-|11-11-11-11-|
B:--------|--------|9-9-9-9-|9-9-9-9-|------------|------------|------------|------------|
G:--------|--------|--------|--------|------------|------------|------------|------------|
D:--------|--------|--------|--------|------------|------------|------------|------------|
A:--------|--------|--------|--------|------------|------------|------------|------------|
E:--------|--------|--------|--------|------------|------------|------------|------------|


Riff du pont:

Il y a d'abord la partie au synthé:

Code:
E:--------|--------|--------|--------|--------|--------|--------|--------|
B:--------|--------|--------|--------|--------|--------|--------|--------|
G:--------|--------|--------|--------|----3---|3---3---|--------|--------|
D:--------|--------|----4---|4---4---|--4---4-|--4---4-|----6---|6---6---|
A:----2---|2---2---|--6---6-|--6---6-|--------|--------|--4---4-|--4---4-|
E:--4---4-|--4---4-|--------|--------|--------|--------|--------|--------|

E:--------|--------|--------|--------|--------|--------|--------|--------|
B:--------|--------|--------|--------|--------|--------|--------|--------|
G:--------|--------|--------|--------|----3---|3---3---|--------|--------|
D:--------|--------|----4---|4---4---|--4---4-|--4---4-|----6---|6---666-|
A:----2---|2---2---|--6---6-|--6---6-|--------|--------|--4---4-|--4-----|
E:--4---4-|--4---4-|--------|--------|--------|--------|--------|--------|

Derrière ce synthé il y a une nappe synthétique qui joue ça:


Et en tout c'est censé donner ça:


Et puis ensuite le riff guitare qui suit:

Pour jouer ce riff il suffit de tenir successivement les barrés suivants pour 2 mesures chacuns:

Code:
  Dbsus2    Abm      Bsus2   Gb

E:--4-----|--4-----|--2-----|--2-----|
B:--4-----|--4-----|--2-----|--2-----|
G:--6-----|--4-----|--4-----|--3-----|
D:--6-----|--6-----|--4-----|--4-----|
A:--4-----|--6-----|--2-----|--4-----|
E:--4-----|--4-----|--2-----|--2-----|

NB: une mesure = |--------| contenant 4 temps: |1-2-3-4-|

Code:
____1_________2________3________4________5________6________7________8

E:--------|--------|--------|--------|--------|--------|-------4|--------|
B:------4-|--------|--------|--------|------2-|--------|-----2--|--4-----|
G:----6---|--6-----|------4-|--4-----|----4---|--4-----|--------|--------|
D:6-------|--------|----6---|--------|4-------|--------|--------|--------|
A:4-------|--------|6-------|--------|2-------|--------|4-------|--------|
E:--------|--------|4-------|--------|--------|--------|2-------|--------|

Note: Pour cette première partie seulement au 4ème temps de la 7ème mesure, on glisse à nouveau du barré Bsus2 à celui de Dbsus2

Code:
____1_________2________3________4________5________6____________7____________8

E:--------|--------|--------|--------|--------|--------|9--9--9--9--|9--9--9--9--|
B:------4-|--------|--------|--------|------2-|--------|9--9--9--9--|9--9--9--9--|
G:----6---|--6-----|------4-|--4-----|----4---|--4-----|11-11-11-11-|11-11-11-11-|
D:6-------|--------|----6---|--------|4-------|--------|11-11-11-11-|11-11-11-11-|
A:4-------|--------|6-------|--------|2-------|--------|9--9--9--9--|9--9--9--9--|
E:--------|--------|4-------|--------|--------|--------|9--9--9--9--|9--9--9--9--|

Voilàààà la suite plus tard!! Razz
avatar
Thomas
Modérateur LittlePonette
Modérateur LittlePonette
Messages : 2771

Infos suplémentaires
Instrument Favori: Guitare
Album préféré: 7000 danses
Connaît Indochine depuis: 2005 - Savoure le rouge

Re: Razzia (studio)

le 25/2/2011, 15:52
tu me fais réaliser que j'ai jamais vraiment écouté ce morceau xD
Contenu sponsorisé

Re: Razzia (studio)

Voir le sujet précédentRevenir en hautVoir le sujet suivant
Permission de ce forum:
Vous ne pouvez pas répondre aux sujets dans ce forum