Partagez
Voir le sujet précédentAller en basVoir le sujet suivant
avatar
indohot
Novice Lvl. 3
Novice Lvl. 3
Messages : 75

Infos suplémentaires
Instrument Favori:
Album préféré: Wax
Connaît Indochine depuis: wax
http://oli2sat80.skyblog.com

Alice & June (Live ?)

le 5/5/2007, 11:45
je voudrais savoir comme je narrive pas a trouver la ritmique sur alice et june que oli joue en live quelqun serait comment il la joue svp merci
avatar
Coxie
Administrateur
Administrateur
Messages : 2597

Infos suplémentaires
Instrument Favori:
Album préféré: Dancetaria
Connaît Indochine depuis: Paradize : j'ai connu cet album, 2004 : j'ai couru acheter le DVD du 3.6.3, 2004/2005 : grande passion ^^

Re: Alice & June (Live ?)

le 24/5/2007, 06:39
Et moi j'aimerai qu'on fasse une reprise tous ensemble de cette chanson !!!
Version live, bien rock bien dynamique, pour changer des versions acoustiques :mrgreen:

A un moment je saturais avec Alice et June, finalement je l'aime plus que jamais !!!!

Donc up pour indohot, et à vos vidéos Razz

_________________
Un clic chaque jour, de l'amour pour toujours

Quelque part dans ce monde, il y a cette personne rien que pour moi, qui m'aime parce que je suis moi...
avatar
indohot
Novice Lvl. 3
Novice Lvl. 3
Messages : 75

Infos suplémentaires
Instrument Favori:
Album préféré: Wax
Connaît Indochine depuis: wax
http://oli2sat80.skyblog.com

Re: Alice & June (Live ?)

le 25/5/2007, 11:52
ok je vais essayer den faire une de video mais es ce que je pourrais avoir les note que oli joue en barré en live
avatar
nico84nv
Administrateur
Administrateur
Messages : 6021

Infos suplémentaires
Instrument Favori:
Album préféré: Nuits intimes
Connaît Indochine depuis: 2001
http://nico84nv.wordpress.com/

Re: Alice & June (Live ?)

le 25/5/2007, 11:56
Faudrait que je regarde, mais vu que les accords sont A# F Dm, il doit faire ça :

Code:

----------
----------
----10--7-
-8--10--7-
-8--8---5-
-6-------

ou

Code:

---------
---------
-------7-
-8--3--7-
-8--3--5-
-6--1----

A vérifier...


Dernière édition par le 25/5/2007, 12:00, édité 2 fois

_________________


~ WordPress ~ MySpace ~
avatar
indohot
Novice Lvl. 3
Novice Lvl. 3
Messages : 75

Infos suplémentaires
Instrument Favori:
Album préféré: Wax
Connaît Indochine depuis: wax
http://oli2sat80.skyblog.com

Re: Alice & June (Live ?)

le 25/5/2007, 11:58
d'accord je vais essayer
avatar
Rsbay
Modérateur
Modérateur
Messages : 1526

Infos suplémentaires
Instrument Favori: Guitare
Album préféré: Dancetaria
Connaît Indochine depuis: 2002
http://www.myspace.com/rsb44

Re: Alice & June (Live ?)

le 25/5/2007, 15:53
nico84nv a écrit:
Code:

---------
---------
-------7-
-8--3--7-
-8--3--5-
-6--1----

A vérifier...
Sur le songbook d'A&J, il le joue comme ca!!! Mais après c'est que le songbook :/

_________________
JE M'HABILLE EN PLAYMOBILE
dis-moi dis-moi dis le moi
POURQUOI JE RESTE IMMOBILE
dis-moi dis-moi dis le moi

[daisybox - immobile]
avatar
op1um666
Novice Lvl. 3
Novice Lvl. 3
Messages : 57
http://indo.morphine.free.fr/

Re: Alice & June (Live ?)

le 3/6/2007, 21:37
rosesongboy a écrit:
nico84nv a écrit:
Code:

---------
---------
-------7-
-8--3--7-
-8--3--5-
-6--1----

A vérifier...
Sur le songbook d'A&J, il le joue comme ca!!! Mais après c'est que le songbook :/

c'est pour quoi ca? pour l'intro d'Oli?

perso je l'ai toujours joué :

Code:

-------------------------------------------------
-------------------------------------------------
-------------------------------------------------
-8-8-8-8-7-7-7-7-12-12-12-12-12-12-12-12
-------------------------------------------------
-------------------------------------------------

ainsi de suite

après les accords :

--------------------------------------------------
--------------------------------------------------
-----3---7---------------------------------------
--3--3---7---------------------------------------
--3--1---5---------------------------------------
--1-----------------------------------------------

ensuite boris :

--------------------------------------------------
--------------------------------------------------
--------------------------------------------------
---------0-------------3-------------3-----------
--3--2----------3--2---------3--2------0-------
--------------------------------------------------

mais bon j'ai trouvé ca à l'oreil et j'ai trouvé trouvé ca moyen voir nul alors...
avatar
nico84nv
Administrateur
Administrateur
Messages : 6021

Infos suplémentaires
Instrument Favori:
Album préféré: Nuits intimes
Connaît Indochine depuis: 2001
http://nico84nv.wordpress.com/

Re: Alice & June (Live ?)

le 4/6/2007, 03:56
La question posée était sur la rythmique de Oli, donc les accords joués après l'intro.
Par contre, sur ta tab, tu as inversé les deux premiers acords (c'est d'abord A#, puis F) Wink
Sinon, ton riff d'intro est bon.
Pour le dernier, celui de Boris, je regarderai demain...suis trop crevé là pour vérifier

_________________


~ WordPress ~ MySpace ~
avatar
Nanou
Posteur Débutant
Posteur Débutant
Messages : 144

Infos suplémentaires
Instrument Favori:
Album préféré: Alice & June
Connaît Indochine depuis: 2003
http://perso.orange.fr/surreelle

Re: Alice & June (Live ?)

le 4/6/2007, 07:19
suis trop crevé là pour vérifier
Bah oui t'es dingue, t'as vu l'heure? Encore capable d'aller sur le net après une nuit blanche??? Alàlà ça devrait être direct au lit, tu vas pas tenir sinon!
avatar
nico84nv
Administrateur
Administrateur
Messages : 6021

Infos suplémentaires
Instrument Favori:
Album préféré: Nuits intimes
Connaît Indochine depuis: 2001
http://nico84nv.wordpress.com/

Re: Alice & June (Live ?)

le 4/6/2007, 14:35
Nanou a écrit:
suis trop crevé là pour vérifier
Bah oui t'es dingue, t'as vu l'heure? Encore capable d'aller sur le net après une nuit blanche??? Alàlà ça devrait être direct au lit, tu vas pas tenir sinon!
J'avais pas envie, et quand j'ai vu tout les messages postés hier soir, j'avais encore moins envie... Smile

Sinon, pour la partie de Boris (le petit riff), je fais ça perso :
Code:

e----------------------
B----------------------
G-3-2----3-2---3-2-0-2-
D-----3------3---------
A----------------------
E----------------------

_________________


~ WordPress ~ MySpace ~
avatar
indohot
Novice Lvl. 3
Novice Lvl. 3
Messages : 75

Infos suplémentaires
Instrument Favori:
Album préféré: Wax
Connaît Indochine depuis: wax
http://oli2sat80.skyblog.com

Re: Alice & June (Live ?)

le 4/6/2007, 14:40
oui c'est se que je joue comme boris
avatar
op1um666
Novice Lvl. 3
Novice Lvl. 3
Messages : 57
http://indo.morphine.free.fr/

Re: Alice & June (Live ?)

le 4/6/2007, 16:57
nico84nv a écrit:
Nanou a écrit:
suis trop crevé là pour vérifier
Bah oui t'es dingue, t'as vu l'heure? Encore capable d'aller sur le net après une nuit blanche??? Alàlà ça devrait être direct au lit, tu vas pas tenir sinon!
J'avais pas envie, et quand j'ai vu tout les messages postés hier soir, j'avais encore moins envie... Smile

Sinon, pour la partie de Boris (le petit riff), je fais ça perso :
Code:

e----------------------
B----------------------
G-3-2----3-2---3-2-0-2-
D-----3------3---------
A----------------------
E----------------------

t'as essayé

Code:

--------------------
--------------------
--3--2------0-------
---------3----------
--------------------
--------------------

à la fin pour boris? ca sonne bien aussi je trouve
avatar
eric
Posteur Expert
Posteur Expert
Messages : 590

Infos suplémentaires
Instrument Favori:
Album préféré: Nuits intimes
Connaît Indochine depuis:

Re: Alice & June (Live ?)

le 21/6/2007, 17:52
salut !!

bon je suis nouveau sur ce forum


et bon je suis un fan d'indo depuis pas bien longtemps mais c'est grâce à ce super groupe que je me suis mis a la guitare !!!


alors oui les accords de Oli pour cette chanson c'est


688xxx

133xxx

x577xx


alors après pour le rythme je suis preneur si quelqu'un le donne


perso je joue chaque accord 3 fois et j'étouffe une 4ème fois (je sais pas si c'est clair)


sa sonne pas mal mais c'est pas ce que Oli fait dans la version original
avatar
miss-molko
Novice Lvl. 2
Novice Lvl. 2
Messages : 37

Re: Alice & June (Live ?)

le 9/9/2007, 18:22
--------------------------------------------------
--------------------------------------------------
-----3---7---------------------------------------
--3--3---7---------------------------------------
--3--1---5---------------------------------------
--1-----------------------------------------------
le 133 et le x133 tu les joues 4 fois et le 577 tu le joue 8fois
avatar
nico84nv
Administrateur
Administrateur
Messages : 6021

Infos suplémentaires
Instrument Favori:
Album préféré: Nuits intimes
Connaît Indochine depuis: 2001
http://nico84nv.wordpress.com/

Re: Alice & June (Live ?)

le 10/9/2007, 11:45
miss-molko a écrit:--------------------------------------------------
--------------------------------------------------
-----3---7---------------------------------------
--3--3---7---------------------------------------
--3--1---5---------------------------------------
--1-----------------------------------------------
le 133 et le x133 tu les joues 4 fois et le 577 tu le joue 8fois
Tu n'aurais pas inversé les deux premiers par hazar ? scratch (c'est d'abord A#, puis F, et ensuite Dm Wink )

_________________


~ WordPress ~ MySpace ~
avatar
miss-molko
Novice Lvl. 2
Novice Lvl. 2
Messages : 37

Re: Alice & June (Live ?)

le 10/9/2007, 17:37
nico84nv a écrit:
miss-molko a écrit:--------------------------------------------------
--------------------------------------------------
-----3---7---------------------------------------
--3--3---7---------------------------------------
--3--1---5---------------------------------------
--1-----------------------------------------------
le 133 et le x133 tu les joues 4 fois et le 577 tu le joue 8fois
Tu n'aurais pas inversé les deux premiers par hazar ? scratch (c'est d'abord A#, puis F, et ensuite Dm Wink )


oué Wink
lord-arsiel
Posteur Expert
Posteur Expert
Messages : 689

Infos suplémentaires
Instrument Favori:
Album préféré: Alice & June
Connaît Indochine depuis: Non définit
http://thestormmakers.bandcamp.com

Re: Alice & June (Live ?)

le 11/9/2007, 11:35
nico84nv a écrit:
Nanou a écrit:
suis trop crevé là pour vérifier
Bah oui t'es dingue, t'as vu l'heure? Encore capable d'aller sur le net après une nuit blanche??? Alàlà ça devrait être direct au lit, tu vas pas tenir sinon!
J'avais pas envie, et quand j'ai vu tout les messages postés hier soir, j'avais encore moins envie... Smile

Sinon, pour la partie de Boris (le petit riff), je fais ça perso :
Code:

e----------------------
B----------------------
G-3-2----3-2---3-2-0-2-
D-----3------3---------
A----------------------
E----------------------

perso je fais ça, je trouve que c'est plus ressemblant :

Code:

e----------------------
B----------------------
G-3-2----3-2---3-2-0-2-
D-----0------3---------
A----------------------
E----------------------

Et même quand j'arrive à jouer le début vite, je rajoute ça en hammer on :

Code:

e--------------------------
B--------------------------
G-0-2-3-2----3-2---3-2-0-2-
D---------0------3---------
A--------------------------
E--------------------------
nadawieb83
Novice Lvl. 2
Novice Lvl. 2
Messages : 36

Infos suplémentaires
Instrument Favori:
Album préféré: Alice & June
Connaît Indochine depuis: Non définit

Re: Alice & June (Live ?)

le 7/10/2007, 20:02
Pour la rythmique d'Oli je fais pareil que la basse (pour bien entendre ce que sa donne faut écouter la version à Taratata on entend bien la basse)
avatar
Sam
Administrateur
Administrateur
Messages : 2948

Infos suplémentaires
Instrument Favori: Autre
Album préféré: Nuits intimes
Connaît Indochine depuis: 2002
http://goossy.cowblog.fr

Re: Alice & June (Live ?)

le 9/10/2007, 21:11
nadawieb83 a écrit:la version à Taratata on entend bien la basse
+1 j'adore cette version exprès pour ça justement ^^

_________________
avatar
Sirkis-Jardel-363
Novice Lvl. 1
Novice Lvl. 1
Messages : 22

Re: Alice & June (Live ?)

le 31/10/2010, 13:44
Vers le mois de juillet - Août, Indo est passé à la télé ...
Et sur Alice & June , à la fin Boris a fait à la guitare le '' ouhouhouhou..''
J'aimerais avoir la tablature svp ?
Merci bcp Smile
avatar
Sirkis-Jardel-363
Novice Lvl. 1
Novice Lvl. 1
Messages : 22

Re: Alice & June (Live ?)

le 3/12/2010, 21:19

http://www.youtube.com/watch?v=kIgC7asL8Ck

04 min 14 Smile Smile

J'aimerais tellement faire ça , à la guitare ...
avatar
Thomas
Modérateur LittlePonette
Modérateur LittlePonette
Messages : 2771

Infos suplémentaires
Instrument Favori: Guitare
Album préféré: 7000 danses
Connaît Indochine depuis: 2005 - Savoure le rouge

Re: Alice & June (Live ?)

le 3/12/2010, 21:21
vite vite ça ressemble à

--------------------------------------------------
--11-----------10-------------------------------------
--------10------------10------------------------------
--------------------------------------------------
--------------------------------------------------
--------------------------------------------------


-------10-------------------------------------------
--11-------13-----------------------------------------
-----------------10---------------------------------
--------------------------------------------------
--------------------------------------------------
--------------------------------------------------

je mets pas le rythme, mais c'est facile à trouver ;-)
avatar
Sirkis-Jardel-363
Novice Lvl. 1
Novice Lvl. 1
Messages : 22

Re: Alice & June (Live ?)

le 3/12/2010, 21:23
Je vais essayer ça Smile
Merci Bcp
SHAYYY !!
avatar
Thomas
Modérateur LittlePonette
Modérateur LittlePonette
Messages : 2771

Infos suplémentaires
Instrument Favori: Guitare
Album préféré: 7000 danses
Connaît Indochine depuis: 2005 - Savoure le rouge

Re: Alice & June (Live ?)

le 4/12/2010, 00:02
;-) c'est pas dur lol
avatar
Indoleo
Novice Lvl. 3
Novice Lvl. 3
Messages : 87

Infos suplémentaires
Instrument Favori: Guitare
Album préféré: Alice & June
Connaît Indochine depuis: A la sortie de Dancetaria

Re: Alice & June (Live ?)

le 25/5/2011, 06:01
Au niveau effet sur cette chanson en live: Oli a bien une pédale de disto nan ?
Contenu sponsorisé

Re: Alice & June (Live ?)

Voir le sujet précédentRevenir en hautVoir le sujet suivant
Permission de ce forum:
Vous ne pouvez pas répondre aux sujets dans ce forum