Partagez
Voir le sujet précédentAller en basVoir le sujet suivant
avatar
indo49
Novice Lvl. 1
Novice Lvl. 1
Messages : 17

Infos suplémentaires
Instrument Favori:
Album préféré: Paradize
Connaît Indochine depuis: 10 ans (depuis que j'ai 5 ans)
http://www.myspace.com/steamviper

La Secheresse Du Mekong

le 22/8/2009, 12:18
Voici La Secheresse du mekong je trouve qu'il y'avait un manque et voici le reste je vais essayer de faire la suite

Indochine - La Secheresse du Mekong - (Nicola Sirkis / Dominique Nicolas)
tabs by indo49

Am G F Am G F Am G F Am
Partis pour explorer Une foret vierge La region inconnue
G F Am G F Am G F Dm
Des rizieres Kao-Bang Truffes de fauves feroces Et d'anthropophages...

Dm F Am Am

Dm F Am Am
Durant la secheresse du Mekong .
Ils resterent 10 jours isoles du monde .
Durant la secheresse du Mekong

Am G F Am G F

Am G F Am G F Am G F Am
Soudain c'est l'embuscade Par des sauvages Brutes sans foi ni loi
G F Am G F Am G F Dm
Qui les enfermerent Dans ces cages en bois La sombre prison

Dm F Am Am

Dm F Am Am
Durant la secheresse du Mekong
Ils resterent 10 jours isoles du monde

Durant la secheresse du Mekong
Durant la secheresse du Mekong

Ils resterent 10 jours isoles du monde
Durant la secheresse du Mekong

Am G F Am G F Am G F Am
D'escale ? Saigon Des hommes vaillants Partis pour les delivrer
G F Am G F Am G F Dm
Des cannibales Dans un combat sanglant Les rescaperent.

Dm F Am Am

Dm F Am Am
Durant la secheresse du Mekong
Ils resterent 10 jours isoles du monde

Durant la secheresse du Mekong
Ils resterent 10 jours isoles du monde
Durant la secheresse du Mekong
avatar
Krakatoa
Posteur Acharné
Posteur Acharné
Messages : 302

Infos suplémentaires
Instrument Favori:
Album préféré: Hanoï
Connaît Indochine depuis: assez longtemps

Re: La Secheresse Du Mekong

le 13/9/2010, 05:13
Et voilà, comme promis j'envoie les riffs, Indo49 s'étant occupé des accords.

Bon, c'est pas un morceau à pièges mg mais comme y'a pas mal de réverb', j'ai un mal fou à determiner les notes exactes, alors j'en ai mis entre parenthèses, et l'interprète choisira ce qui lui sied.

Riff principal: (la façon la plus facile de le jouer rapidement à mon sens)


Code:
E:--------|--------|--------|--------|--------|--------|--------|--------|
B:--5---5-|--5---5-|--3---3-|--1---1-|--5---5-|--5---5-|--3---3-|--1---1-|
G:--------|--------|--------|--------|--------|--------|--------|--------|
D:7---7---|7---7---|5---5---|3---3---|7---7---|7---7---|5---5---|3---3---|
A:--------|--------|--------|--------|--------|--------|--------|--------|
E:--------|--------|--------|--------|--------|--------|--------|--------|

G:--------|--------|--------|--------|--------|--------|--------|--------|
D:--------|--------|--------|--------|--------|--------|--------|--------|
A:0-0-0-0-|0-0-0-0-|--------|--------|0-0-0-0-|0-0-0-0-|--------|--------|
E:--------|--------|3-3-3-3-|1-1-1-1-|--------|--------|3-3-3-3-|1-1-1-1-|

 |x-x-x-x-|x-x-x-x-|x-x-x-x-|x-x-x-x-|x-x-x-x-|x-x-x-x-|x-x-x-x-|x-x-x-x-|
 |----x---|----x---|----x---|----x---|----x---|----x---|----x---|----x---|
 |x-----x-|x-----x-|x-----x-|x-----x-|x-----x-|x-----x-|x-----x-|x-----x-|

Le riff de la pause au milieu:

Code:
E:--------|--------|--------|--------|--------|--------|--------|--------|
B:--------|--------|--------|--------|--------|--------|--------|--------|
G:----5---|--5---5-|----4---|----2---|----5---|--5---5-|----4---|----2---|
D:7-----7-|7---7---|5(5)-(5)|3(3)----|7-----7-|7---7---|5(5)-(5)|3(3)----|
A:--------|--------|--------|--------|--------|--------|--------|--------|
E:--------|--------|--------|--------|--------|--------|--------|--------|

G:--------|--------|--------|--------|--------|--------|--------|--------|
D:--------|--------|--------|--------|--------|--------|--------|--------|
A:0-0-0-0-|0-0-0-0-|--------|--------|0-0-0-0-|0-0-0-0-|--------|--------|
E:--------|--------|3-3-3-3-|1-1-1-1-|--------|--------|3-3-3-3-|1-1-1-1-|

Et puis:

Code:
E:--------|--------|--------|--------|--------|--------|--------|--------|
B:----5---|--5---5-|----3---|----1---|----5---|--5---5-|3-5-3-1-|0-1-0---|
G:--------|--------|--------|--------|--------|--------|--------|------0-|
D:7-----7-|7---7---|5(5)-(5)|3(3)----|7-----7-|7---7---|5(5)----|3(3)----|
A:--------|--------|--------|--------|--------|--------|--------|--------|
E:--------|--------|--------|--------|--------|--------|--------|--------|

G:--------|--------|--------|--------|--------|--------|--------|--------|
D:--------|--------|--------|--------|--------|--------|--------|--------|
A:0-0-0-0-|0-0-0-0-|--------|--------|0-0-0-0-|0-0-0-0-|--------|--------|
E:--------|--------|3-3-3-3-|1-1-1-1-|--------|--------|3-3-3-3-|1-1-1-1-|

Et puis enfin le petit riff curieux que l'on entend entre les couplets et les refrains, puis à la fin dans chaque refrain:

Code:
E:--------|--1-----|--------|--------|--------|
B:--3---1-|--------|--3---1-|--1-----|--------|
G:2---2---|----2-0-|2---2---|----2-0-|2-------|
D:--------|--------|--------|--------|--------|
A:--------|--------|--------|--------|--------|
E:--------|--------|--------|--------|--------|

G:--------|--------|--------|--------|--------|
D:0-0-0-0-|0-0-0-0-|--------|--------|--------|
A:--------|--------|--------|--------|0-0-0-0-|
E:--------|--------|1-1-1-1-|1-1-1-1-|--------|

 |x-x-x-x-|x-x-x-x-|x-x-x-x-|x-x-x-x-|x-x-x-x-|
 |----x---|----x---|----x---|----x---|----x---|
 |x-----x-|x-----x-|x-----x-|x-----x-|x-----x-|

Je mets un petit extrait pour le rythme: mg



Peut-être que c'est dû à la reverberation, mais on entend quelques notes de plus parfois vers la fin:

Code:
E:--------|--1-----|--------|--------|--------|--------|
B:--3---1-|--------|--3---1-|--1-----|--1-----|--------|
G:2---2---|----2-0-|2---2---|2---2-0-|2---2-0-|2-------|
D:--------|--------|--------|--------|--------|--------|
A:--------|--------|--------|--------|--------|--------|
E:--------|--------|--------|--------|--------|--------|

G:--------|--------|--------|--------|--------|--------|
D:0-0-0-0-|0-0-0-0-|--------|--------|--------|--------|
A:--------|--------|--------|--------|0-0-0-0-|0-0-0-0-|
E:--------|--------|1-1-1-1-|1-1-1-1-|--------|--------|

 |x-x-x-x-|x-x-x-x-|x-x-x-x-|x-x-x-x-|x-x-x-x-|x-x-x-x-|
 |----x---|----x---|----x---|----x---|----x---|----x---|
 |x-----x-|x-----x-|x-----x-|x-----x-|x-----x-|x-----x-|
avatar
Krakatoa
Posteur Acharné
Posteur Acharné
Messages : 302

Infos suplémentaires
Instrument Favori:
Album préféré: Hanoï
Connaît Indochine depuis: assez longtemps

Re: La Secheresse Du Mekong

le 30/12/2010, 15:00
Voici une autre manière de jouer le riff du refrain en utilisant l'accord barré de ré mineur sur la 5ème frette:
(J'ai ajouté le petit riff qu'on entend derrière)

Code:
E:--------|--------|--------|--------|--------|--------|--------|--------|
B:--------|--6-----|--------|--------|--------|--------|--------|--------|
G:--7---5-|--------|--7---5-|--5-----|-(----5-|-----)--|--------|--------|
D:7---7---|----7-5-|7---7---|----7-5-|7(5-7---|7-5-7)--|--------|--------|
A:--------|--------|--------|--------|--------|--------|--------|--------|
E:--------|--------|--------|--------|--------|--------|--------|--------|

E:--------|--------|--------|--------|--------|--------|--------|--------|
B:--------|--------|--------|--------|--------|--------|--------|--------|
G:7_______|____10__|--------|--------|--------|--------|--------|--------|
D:--------|--------|--------|10______|7_______|________|________|________|
A:--------|--------|8_______|--------|--------|--------|--------|--------|
E:--------|--------|--------|--------|--------|--------|--------|--------|

G:--------|--------|--------|--------|--------|--------|--------|--------|
D:0-0-0-0-|0-0-0-0-|--------|--------|--------|--------|--------|--------|
A:--------|--------|--------|--------|0-0-0-0-|0-0-0-0-|0-0-0-0-|0-0-0-0-|
E:--------|--------|1-1-1-1-|1-1-1-1-|--------|--------|--------|--------|

 |x-x-x-x-|x-x-x-x-|x-x-x-x-|x-x-x-x-|x-x-x-x-|x-x-x-x-|x-x-x-x-|x-x-x-x-|
 |----x---|----x---|----x---|----x---|----x---|----x---|----x---|----x---|
 |x-----x-|x-----x-|x-----x-|x-----x-|x-----x-|x-----x-|x-----x-|x-----x-|
avatar
Thomas
Modérateur LittlePonette
Modérateur LittlePonette
Messages : 2771

Infos suplémentaires
Instrument Favori: Guitare
Album préféré: 7000 danses
Connaît Indochine depuis: 2005 - Savoure le rouge

Re: La Secheresse Du Mekong

le 1/1/2011, 20:07
sympa =) c'est tout simple, mais j'adore cette chanson et je m'étais jamais même demandé comment la jouer
merci beaucoup !
avatar
Krakatoa
Posteur Acharné
Posteur Acharné
Messages : 302

Infos suplémentaires
Instrument Favori:
Album préféré: Hanoï
Connaît Indochine depuis: assez longtemps

Re: La Secheresse Du Mekong

le 2/1/2011, 11:05
Thomas a écrit:sympa =) c'est tout simple, mais j'adore cette chanson et je m'étais jamais même demandé comment la jouer
merci beaucoup !

Avec plaisir Razz ben tiens je suis justement en train de télécharger un bootleg de 1983 (je sais pas si tu l'as déjà) où elle figure en version disto! Ça lui donne pas mal de caractère... Et la qualité de l'enregistrement est au moins aussi bonne que celle du Rose Bonbon. Je le mettrais dans la rubrique inédits quand j'aurais fini. Mais pour l'instant le torrent est mort alors je suis bloqué en attendant qu'ils le rétablissent...
avatar
Thomas
Modérateur LittlePonette
Modérateur LittlePonette
Messages : 2771

Infos suplémentaires
Instrument Favori: Guitare
Album préféré: 7000 danses
Connaît Indochine depuis: 2005 - Savoure le rouge

Re: La Secheresse Du Mekong

le 2/1/2011, 23:22
nope ça me dit rien, mais j'aimerais bien l'entendre, c'est ma préférée parmi les trois premiers albums =)
avatar
Krakatoa
Posteur Acharné
Posteur Acharné
Messages : 302

Infos suplémentaires
Instrument Favori:
Album préféré: Hanoï
Connaît Indochine depuis: assez longtemps

Re: La Secheresse Du Mekong

le 3/1/2011, 10:36
Thomas a écrit:nope ça me dit rien, mais j'aimerais bien l'entendre, c'est ma préférée parmi les trois premiers albums =)

Tiens donc? Ah ben ca... Y'avait de la concurrence pourtant Razz T'as du accrocher l'écho, le coté aérien nan? Ah et les hoquets rockabilly de Nicola, j'adore. :love2: J'ai entendu dire que la version jouée sur IndoLive était pas vilaine du tout, tres réussie, mais que malheureusement elle n'a pas été retenue... je vais voir si je peux dénicher un bootleg. :mrgreen:
avatar
Thomas
Modérateur LittlePonette
Modérateur LittlePonette
Messages : 2771

Infos suplémentaires
Instrument Favori: Guitare
Album préféré: 7000 danses
Connaît Indochine depuis: 2005 - Savoure le rouge

Re: La Secheresse Du Mekong

le 3/1/2011, 16:37
aw j'aurais vraiment aimé qu'elle soit sur le dvd =(
je sais pas pourquoi j'ai autant accroché, mais bon, j'ai envie d'en faire une reprise depuis que vous avez mis ça, avec plein d'instruments et tout et tout =)
avatar
ced777
Posteur Acharné
Posteur Acharné
Messages : 420

Infos suplémentaires
Instrument Favori: Guitare
Album préféré: Dancetaria
Connaît Indochine depuis: 1998 environ ...
http://ced.777.perso.neuf.fr/

Re: La Secheresse Du Mekong

le 9/1/2011, 13:13
On peut également jouer le riff principal sans saut de corde, c'est un peu plus simple à maitriser Smile
Code:

E:--------|--------|--------|--------|
B:--------|--------|--------|--------|
G:--9---9--|--9---9-|--7---7-|--5---5-|
D:7---7---|7---7---|5---5---|3---3---|
A:--------|--------|--------|--------|
E:--------|--------|--------|--------|
avatar
Krakatoa
Posteur Acharné
Posteur Acharné
Messages : 302

Infos suplémentaires
Instrument Favori:
Album préféré: Hanoï
Connaît Indochine depuis: assez longtemps

Re: La Secheresse Du Mekong

le 10/1/2011, 01:00
ced777 a écrit:On peut également jouer le riff principal sans saut de corde, c'est un peu plus simple à maitriser Smile

Oui exact! Merci Ced', je m'en suis rendu compte trop tard mais j'avais la flemme de modifier la tab Laughing Cette version doit etre la bonne, surtout qu'on entend mieux le glissé. Wink
avatar
Thomas
Modérateur LittlePonette
Modérateur LittlePonette
Messages : 2771

Infos suplémentaires
Instrument Favori: Guitare
Album préféré: 7000 danses
Connaît Indochine depuis: 2005 - Savoure le rouge

Re: La Secheresse Du Mekong

le 10/1/2011, 02:27
j'm'en étais même pas rendu compte mdr
j'ai enregistré à la dure
Contenu sponsorisé

Re: La Secheresse Du Mekong

Voir le sujet précédentRevenir en hautVoir le sujet suivant
Permission de ce forum:
Vous ne pouvez pas répondre aux sujets dans ce forum